Dir En Grey - Deity Chords & Tabs

 

Deity Chords & Tabs

Dir En Grey Chords & Tabs

Version: 1 Type: Tab 0 ratings
1 star 2 stars 3 stars 4 stars 5 stars
comments

Deity Tab

   
artist: Dir en grey
song: Deity

the beginning of this song is just weird noises and voices and mandolin(?) parts. 

tuning: standard

main riff (all E#5 (133) chords are palm muted) \=slide

E--------------
B--------------
G--------------
D-2-3-2-8\-3-2-
A-2-3-2-8\-3-2-
E-0-1-0-6\-1-0-

pre-interlude *=pinch harmonic
(all palm muted except for p.h.'s)
[ Tab from: http://www.guitartabs.cc/tabs/d/dir_en_grey/deity_tab.html ]
E------------------------------------
B------------------------------------
G------------------------------------
D------------------------------------
A------------------------------1*----
E-0-0-0-0-0-0-0-0-0-0-0-0-0-1*----1*-

interlude (clean)


E-----------------------------
B-----------------------------
G-----3-----3-----3---5-3---3-
D---5-----5-----5---5-----5---
A-3-----4-----5---------------
E-----------------------------

thats the whole song. 
Comments