Dir En Grey - Cage Chords & Tabs

 

Cage Chords & Tabs

Dir En Grey Chords & Tabs

Version: 2 Type: Bass Tab 0 ratings
1 star 2 stars 3 stars 4 stars 5 stars
comments

Cage Bass Tab

This is how i play it. I figured out after i got accustomed to playing this way that
you start on the fifth fret of the second string and you can probably move all this
down to starting open on the third string which might make it a little easier for someone. 


[ Tab from: http://www.guitartabs.cc/tabs/d/dir_en_grey/cage_btab_ver_2.html ]
--------------------------------------------
-----------------3--------------------------
-55--88------------3------55-----------5/8-7  
---55--88-55-3-5-----66-88---6-3-5-6-3------


----------------------------------------
-----------------3----------------------
-55--88------------3------55---10-10-8-7 
---55--88-55-3-5-----66-88---6----------


I'm pretty sure thats how it goes. There's no real order to that tab
but if you know and like the song, you're clearly a genius with great taste in music
so I'm sure you can figure it out.

Seth Mosher made this
Comments