Dir En Grey - Akuro No Oka Chords & Tabs

 

Akuro No Oka Chords & Tabs

Dir En Grey Chords & Tabs

Version: 1 Type: Tab 0 ratings
1 star 2 stars 3 stars 4 stars 5 stars
comments

Akuro No Oka Tab

   
--------------------------------------------------------------------------
                          AKURO NO OKA - Dir En Grey
--------------------------------------------------------------------------
Tabbed by: Matheus
Email: darkdeathm@pop.com.br

Tuning: e|B|G|D|A|e

e-|----------------------------------------------------------------------|
B-|------------------------------------10-8/10---------------------------|
G-|---/11-12-11-12-9---/9-11-12--11-12---------12--11-12----12/14-12-----|
D-|----------------------------------------------------------------------|
A-|----------------------------------------------------------------------|
E-|----------------------------------------------------------------------|
[ Tab from: http://www.guitartabs.cc/tabs/d/dir_en_grey/akuro_no_oka_tab.html ]
e-|----------------------------------------------------------------------|
B-|-----------------------------------------------------------10-10/12-12|
G-|-----12-12--11-11--9-9-11--9----------------/9--12-11--12-------------|
D-|-----------------------------9-7-5-4---4/5----------------------------|
A-|----------------------------------------------------------------------|
E-|----------------------------------------------------------------------|

e-|-/15--14-------------12----14------15------14----12----12---------14b-|
B-|----------12-----/12----12------12------12----12----12--------/12-----|
G-|----------------------------------------------------------------------|
D-|----------------------------------------------------------------------|
A-|----------------------------------------------------------------------|
E-|----------------------------------------------------------------------|

e-|----/15-15-14-12----/15-15-14-12----/15-15-14--/17--15-14-----/15-15--|
B-|----------------------------------------------------------------------|
G-|----------------------------------------------------------------------|
D-|----------------------------------------------------------------------|
A-|----------------------------------------------------------------------|
E-|----------------------------------------------------------------------|


| /  slide up
| B  bend

Hey guys, this is my first tab. Hope y'all have fun with this.
sayounara minna.
===========================================================================
Comments