Dios Malos - You Got Me All Wrong Chords & Tabs

 

You Got Me All Wrong Chords & Tabs

Dios Malos Chords & Tabs

Version: 1 Type: Tab 0 ratings
1 star 2 stars 3 stars 4 stars 5 stars
comments

You Got Me All Wrong Tab

   
-----------------------------------------------------------------------------
			     YOU GOT ME ALL WRONG - Dios Malos
-----------------------------------------------------------------------------
Tabbed by: Andrew88
Email: ridethelightning3@hotmail.com

Tuning: standard (EADGBe)

Intro:

Guitar1:
e|-----2---------------------------------------------------------------------|
B|-------3---3-----2h3-3-2---2-----0--0--------------------------------------|
G|---------4---------------2-------1--1-1h2-2/4--4/9--9----------------------|
D|---4-----------2-----------------2--2-2---2/4--4/9--9----------------------|
A|-2-----------0-----------------2-2--2-------4--4/9--9----------------------|
E|-----------------------------0---------------------------------------------|


e|-----2---------------------------------------------------------------------|
B|-------3---3-----2h3-3-2---2--------------0--------------------------------|
G|---------4---------------2-----------1---------1h2-2p1-1-------------------|
D|---4-----------2-----------------2------2----2-2---2---2-------------------|
A|-2-----------0-----------------2---2---------------------------------------|
E|-----------------------------0---------------------------------------------|


e|-----2---------------------------------------------------------------------|
B|-------3---3-----2h3-3-2---2-----0-----------------------------------------|
G|---------4---------------2-------1--1-1-1h2-2p1-1--------------------------|
D|---4-----------2-----------------2--2-2-2-2-2---2--------------------------|
A|-2-----------0-----------------2-2--2-2------------------------------------|
E|-----------------------------0---------------------------------------------|
 | Guitar2:
e|-----2---------------------------------------------------------------------|
B|-----3------------2--------------0-----------------------------------------|
G|-----4------------2--------------1-----------------------------------------|
D|-----2------------2--------------2-----------------------------------------|
A|-2-2-2--------0-0-0--------------2-----------------------------------------|
E|-----------------------------0-0-0-----------------------------------------|
(strum each chord a few times)


e|-----------------------------------------0---5---3----------(3)\-----------|
B|-------------------------------------3-------------------------------------|
G|-7-7-7-7-7-6-4---6-6-6-6-6-4-2---4-----------------------------------------|
D|---------------------------------------------------------------------------|
A|---------------------------------------------------------------------------|
E|---------------------------------------------------------------------------|

e|---------2-----------------------------------------------------------------|
B|---------3---------------2---------------0---------------------------------|
G|---------4---------------2---------------1---------------------------------|
D|---------4---------------2---------------2---------------------------------|
A|-2---2---2-------0---0---0---------------2---------------------------------|
E|---------------------------------0---0---0---------------------------------|


Verse:
Guitar1:
e|-----2---------------------------------------------------------------------|
B|-----3------------2--------------0-----------------------------------------|
G|-----4------------2--------------1-----------------------------------------|
D|-----2------------2--------------2-----------------------------------------|
A|-2-2-2--------0-0-0--------------2-----------------------------------------|
E|-----------------------------0-0-0-----------------------------------------|
 |Guitar2:
e|-----2---------------------------------------------------------------------|
B|-----3------------2--------------0-----------------------------------------|
G|-----4------------2--------------1-----------------------------------------|
D|-----2------------2--------------2-----------------------------------------|
A|-2-2-2--------0-0-0--------------2-----------------------------------------|
E|-----------------------------0-0-0-----------------------------------------|


e|-----2---------------------------------------------------------------------|
B|-----3------------2--------------0--0--------------------------------------|
G|-----4------------2--------------1--1-1h2-2/4--4/9--9----------------------|
D|-----2------------2--------------2--2-2---2/4--4/9--9----------------------|
A|-2-2-2--------0-0-0------------2-2--2-------4--4/9--9----------------------|
E|-----------------------------0---------------------------------------------|
                                                                            |
e|-----2---------------------------------------------------------------------|
B|-----3------------2--------------0-----------------------------------------|
G|-----4------------2--------------1-----------------------------------------|
D|-----2------------2--------------2-----------------------------------------|
A|-2-2-2--------0-0-0--------------2-----------------------------------------|
E|-----------------------------0-0-0-----------------------------------------|

[ Tab from: http://www.guitartabs.cc/tabs/d/dios_malos/you_got_me_all_wrong_tab.html ]
e|-----2---------------------------------------------------------------------|
B|-----3------------2h3------------0---0---0-----0---------------------------|
G|-----4------------2--------------1---------1-----1---1---------------------|
D|-----2------------2--------------2-----------2-----2-----------------------|
A|-2-2-2--------0-0-0--------------2-----------------------------------------|
E|-----------------------------0-0-0-----------------------------------------|
                                                                            |
e|-----2---------------------------------------------------------------------|
B|-----3------------2--------------0-----------------------------------------|
G|-----4------------2--------------1-----------------------------------------|
D|-----2------------2--------------2-----------------------------------------|
A|-2-2-2--------0-0-0--------------2-----------------------------------------|
E|-----------------------------0-0-0-----------------------------------------|


e|-----2-------------------------------0-------------------------------------|
B|-----3------------2--------------0-----------------------------------------|
G|-----4------------2--------------1-----------------------------------------|
D|-----2------------2--------------2-----------------------------------------|
A|-2-2-2--------0-0-0--------------2-----------------------------------------|
E|-----------------------------0-0-0-----------------------------------------|
                                                                           |
e|-----2---------------------------------------------------------------------|
B|-----3------------2--------------0-----------------------------------------|
G|-----4------------2--------------1-----------------------------------------|
D|-----2------------2--------------2-----------------------------------------|
A|-2-2-2--------0-0-0--------------2-----------------------------------------|
E|-----------------------------0-0-0-----------------------------------------|


Chorus (both guitars):
e|-2--------------------------0------------3---------------------------------|
B|-3------------2-------------0------------3---------------------------------|
G|-2------------2-------------0------------0---------------------------------|
D|-0------------2-------------2------------0---------------------------------|
A|--------------0-------------2------------2---------------------------------|
E|----------------------------0------------3---------------------------------|

x3

then
e|-2--------------------------0----------------------------------------------|
B|-3------------2-------------0----------------------------------------------|
G|-2------------2-------------0----------------------------------------------|
D|-0------------2-------------2-----------------------------------------0----|
A|--------------0-------------2-------------------------------------0h2------|
E|----------------------------0----------------------------------------------|

After chorus:
Guitar2: same as verse
Guitar1:
e|-----2---------------------------------------------------------------------|
B|-------3---3-----2h3-3-2---2-----0-----------------------------------------|
G|---------4---------------2-------1--1-1-1h2-2p1-1--------------------------|
D|---4-----------2-----------------2--2-2-2-2-2---2--------------------------|
A|-2-----------0-----------------2-2--2-2------------------------------------|
E|-----------------------------0---------------------------------------------|

e|---------------------------------------------------------------------------|
B|---------------------------------------------------------------------------|
G|-7-7-7-7-7-6-4---6-6-6-6-6--4--2--1----------------------------------------|
D|----------------------------------------4---2------------------------------|
A|------------------------------------------------5p4-5----------------------|
E|---------------------------------------------------------------------------|


Verse 2.

Chorus 2.

Outro: x3

e|--0-------3-------1-------1------------------------------------------------|
B|--1-------3-------3-------1------------------------------------------------|
G|--0-------0-------2-------2------------------------------------------------|
D|--2-------0-------0-------3------------------------------------------------|
A|--3-------2---------------3------------------------------------------------|
E|----------3---------------1------------------------------------------------|
(guitar1 should play arpeggios of the chords and guitar2 should just strum them normally.)

end with:
e|--0-------3-------1-------------------------------------------------------|
B|--1-------3-------3-------------------------------------------------------|
G|--0-------0-------2-------------------------------------------------------|
D|--2-------0-------0-------------------------------------------------------|
A|--3-------2---------------------------------------------------------------|
E|----------3---------------------------------------------------------------|


| /  slide up
| \  slide down
| h  hammer-on
| p  pull-off
| ~  vibrato
| +  harmonic
| x  Mute note

=============================================================================
Comments