Dion Celine - My Heart Will Go On Chords & Tabs

 

My Heart Will Go On Chords & Tabs

Dion Celine Chords & Tabs

Version: 1 Type: Chords 0 ratings
1 star 2 stars 3 stars 4 stars 5 stars
comments

My Heart Will Go On Chords

   
#----------------------------------PLEASE NOTE--------------------------------#
#This file is the author's own work and represents their interpretation of the#
#song. You may only use this file for private study, scholarship, or research.#
#-----------------------------------------------------------------------------#
Date: Thu, 26 Mar 1998 17:17:50 -0500 (EST)
From: 'Shawn G. Chittle' 
Subject: MY HEART WILL GO ON (Better Version)
My Heart Will Go On
Titanic Soundtrack
Music: James Horner
Words: Will Jennings 
Sung by: Celine Dion
Transcribed by Shawn G. Chittle
Version 1.0
E-Mail: 97chittle@wmich.edu
Dedicated to my good friend Lori Hamlin.
Fingerpick this for maximum effect. 
Verse:
A   x02220
B   224442
C#  x46654
E   022100
Key Change:
Db  xxx121
Eb  xxx343
F   xxx111
Outro:
Ab  466544
Db  44666x
Eb  668886
Intro:
C# B A B C# B A B 
Outro :
Eb Db Ab Eb Db Ab
[ Tab from: http://www.guitartabs.cc/tabs/d/dion_celine/my_heart_will_go_on_crd.html ]
Note:
If you want to play this song as a solo, try
using some notes from the E major scale.
Intro notes C#, D#, E, F#, A.
Verse notes D#, E, F#, G#, B, A.
Tab:
E---------11-12----14---	
B------------12----14---	
G---------11----13-14---	
D---------11----13-14--- 	
A---------11-12----14---	
E---------11-12----14---	
Score:
E---------D#--E----F#---
B-------------B----G#---
G---------F#----G#--A--- 
D---------C#----D#--E--- 
A---------G#--A-----B---
E---------D#--E----F#---
------------------------------------------------------------------
Date: Thu, 09 Apr 1998 14:37:06 +0200
From: RALPHI BOY 
Subject: my_heart_will_go_on.crd
TITANIC - B.O.
				  Love theme 'My heart will go on'
	           	     Music et paroles : J. HORNER ET W.JENNINGS
				  	    CELINE DION

Transcription by RALPHI TOLEDANO
Strasbourg, FRANCE
e-mail : ralphi@hol.fr
Here is the famous ballad of celine dion....
It is the best version !!!
Rythmus : Pop-ballad
Tempo: 98 (black)
Original : E (transposition: +1)

Dm       xx0231
Csus4    x33010
Bbadd2   x13311
F        133211
C        x32010
Am7      x02010
A7/C#    042020
A7       002020
F#m      244222
E        022100
Dadd2    xx0230
C#m7     x46454
A        x02220

Intro:
Guitar solo:
         Dm           Csus4       Bbadd2  Csus4 
E----1-3---5-----3--1-3--8---6--5---1-------------
B-------------------------------------3-----1-----
         Dm           Csus4       Bbadd2
E----1-3---5-----3--1-3--8--5-8--10--12---13---15-
B-------------------------------------------------

Guitar Acoustic: At the end of the riff, do on Bbadd2:
E-----------------------1--------------------------
B-------------1--3--5---1--------------------------
G----------3------------2--------------------------
D-------3---------------3--------------------------
A----1------------------3--------------------------
E-----------------------1--------------------------


I hope that you'll enjoy this version of the song of the year...
Je dedie cette chanson a tous ceux et toutes celles qui ont coule avec
moi sur cette chanson.
A+
ralphi
Comments