Dio - We Rock Chords & Tabs

 

We Rock Chords & Tabs

Dio Chords & Tabs

Version: 1 Type: Tab 0 ratings
1 star 2 stars 3 stars 4 stars 5 stars
comments

We Rock Tab

   
 Dio 
We Rock
     
    (Am)
   4/4
    Gtrs I, II
       PM--|    PM--|   PM----|    PM--|   PM|   PM|
                                                      3x
||--------------------------|-------------------------||
||o-------------------------|------------------------o||
||---9-------10-------7-----|----9-------5-----7------||
||--10-------12-------9-----|---10-------7-----9------||
||o----0-0-0----0-0-0---0-0-|-0----0-0-0---0-0---0-0-o||
||--------------------------|-------------------------||


  F5     C/E    Dm7      C/E      F5  C5     (Am)
                                                PM--|    PM--|   PM|
|------------------|-----------------------|-------------------------|
|------------------|-----------------------|-------------------------|
|-5--(5)-5-(5)--5--|-(5)--5--(5)---5--5----|--9-------10-------7-----|
|-3--(3)-2-(2)--0--|-(0)--2--(2)---3--5----|-10-------12-------9-----|
|------------------|------------------3----|----0-0-0----0-0-0---0-0-|
|------------------|-----------------------|-------------------------|
|
| Gtr III
| ~~~~~~~~~~~~~~~~~~~~~~~~~~~~~~~~~~~         ~~
|------------------|-----------------------|-------------------------|
|------------------|-----------------------|-------------------------|
|------------------|-----------------------|-------------------------|
|------------------|--------------10--9h10-|--7----------------------|
|-5--(5)-7-(7)--8--|-(8)-10-(10)-----------|-------------------------|
|------------------|-----------------------|-------------------------|


  PM   PM--|   PM|   PM|        PM--|    PM--|   PM---
|------------------------||--------------------------|
|------------------------||o-------------------------|
|----9-------5-----7-----||---9-------10-------7-----|
|---10-------7-----9-----||--10-------12-------9-----|
|-0----0-0-0---0-0---0-0-||o----0-0-0----0-0-0---0-0-|
|------------------------||--------------------------|


 -|    PM--|   PM|   PM|
|-------------------------||
|------------------------o||
|----9-------5-----7------||
|---10-------7-----9------||
|-0----0-0-0---0-0---0-0-o||
|-------------------------||


  F5     G5       E5                C5 B5
 3/4             4/4
|---------------|----------|--------------||
|---------------|----------|--------------||
|---------------|----------|--------5--4--||
|-3--(3)-5-(5)--|-2--------|-(2)----5--4--||
|-3--(3)-5-(5)--|-2--------|-(2)----3--2--||
|-1--(1)-3-(3)--|-0--------|-(0)----------||


 Verse
  $
  $$
  A5
 4/4
         PM|        PM------------------|
|-----------------|-------------------------|
|-----------------|-------------------------|
|-2--(2)-----2----|-------------------------|
|-2--(2)-----2----|-------------------------|
|-0--(0)-0-0-0----|-0-0-0-0-0-0-0-0-0-0-0-0-|
|-----------------|-------------------------|


  (Am)
                    PM--|     PM------|     PM|
|-----------------|-------------------------------|
|-----------------|-------------------------------|
|--------5-(5)----|-------(5)-----------(5)-------|
|-2--(2)----------|--------2-------------2--------|
|-----------------|-0-0-0--0--0-0-0-0-0--0--0-0---|
|-----------------|-------------------------------|


  G5                      A5
                                            PM------|
|----------|------------|----------|-------------------|
|----------|------------|----------|-------------------|
|----------|------------|-2--------|-(2)---------------|
|-5--------|-(5)--------|-2--------|-(2)---------------|
|-5--------|-(5)--------|-0--------|-(0)----0-0-0-0-0--|
|-3--------|-(3)--------|----------|-------------------|


             PM--|    PM--|    PM|
|----------|-------------------------|
|----------|-------10-------10-------|
|-2--------|--------9--------9-------|
|-2--------|--------7--------7-------|
|-0--------|-0-0-0--0-0-0-0--0-0-0-0-|
|----------|-------------------------|


  (Am)
                    PM--|     PM------|     PM|
|-----------------|-------------------------------|
|-----------------|-------------------------------|
|--------5-(5)----|-------(5)-----------(5)-------|
|-2--(2)----------|--------2-------------2--------|
|-----------------|-0-0-0--0--0-0-0-0-0--0--0-0---|
|-----------------|-------------------------------|


                                           To Dbl. Coda
  C5                      A5
                                     PM--|    PM|    PM|
|----------|------------|----------|----------------------||
|----------|------------|----------|-------10-----10------||
|-5--------|-(5)--------|-2--------|--------9------9------||
|-5--------|-(5)--------|-2--------|--------7------7------||
|-3--------|-(3)--------|-0--------|-0-0-0--0-0-0--0-0-0--||
|----------|------------|----------|----------------------||


 Pre-chorus
  Gsus4  G          Gsus4  G          Gsus4  G          Gsus4  G
|-----------------|-----------------|-----------------|-----------------||
|-----------------|-----------------|-----------------|-----------------||
|-5--(5)-4-(4)----|-5--(5)-4-(4)----|-5--(5)-4-(4)----|-5--(5)-4-(4)----||
|-5--(5)-5-(5)----|-5--(5)-5-(5)----|-5--(5)-5-(5)----|-5--(5)-5-(5)----||
|-----------------|-----------------|-----------------|-----------------||
|-----------------|-----------------|-----------------|-----------------||


   Chorus
                                            To Coda
    (Am)
   4/4
       PM--|    PM--|   PM----|    PM--|   PM|   PM|
                                                      3x
||--------------------------|-------------------------||
||o-------------------------|------------------------o||
||---9-------10-------7-----|----9-------5-----7------||
||--10-------12-------9-----|---10-------7-----9------||
||o----0-0-0----0-0-0---0-0-|-0----0-0-0---0-0---0-0-o||
||--------------------------|-------------------------||


                   D.S. al Coda      &
  F5                        C5 B5    F5     G5     A5       B5     C5  D5
|------------------|--------------||------------------|--------------------|
|------------------|--------------||------------------|--------------------|
|------------------|--------5--4--||------------------|--------------------|
|-3--(3)-3-(3)--3--|-(3)----5--4--||-3--(3)-5-(5)--7--|-(7)-9-(9)--10--12--|
|-3--(3)-3-(3)--3--|-(3)----3--2--||-3--(3)-5-(5)--7--|-(7)-9-(9)--10--12--|
|-1--(1)-1-(1)--1--|-(1)----------||-1--(1)-3-(3)--5--|-(5)-7-(7)---8--10--|


    (Am)
   4/4
       PM--|    PM--|   PM----|    PM--|   PM|   PM|
                                                      3x
||--------------------------|-------------------------||
||o-------------------------|------------------------o||
||---9-------10-------7-----|----9-------5-----7------||
||--10-------12-------9-----|---10-------7-----9------||
||o----0-0-0----0-0-0---0-0-|-0----0-0-0---0-0---0-0-o||
||--------------------------|-------------------------||


  F5     C/E    Dm7      C/E    F5 C/E  F5     G5
                                       3/4
|------------------|------------------|---------------|
|------------------|------------------|---------------|
|-5--(5)-5-(5)--5--|-(5)-5-(5)--5--5--|---------------|
|-3--(3)-2-(2)--0--|-(0)-2-(2)--3--2--|-3--(3)-5-(5)--|
|------------------|------------------|-3--(3)-5-(5)--|
|------------------|------------------|-1--(1)-3-(3)--|


                      Guitar solo
  A5                   D5            C5
 4/4
  Gtrs I, II
  |         |            |           |
  /         /            /           /

  Gtr IV
                         \2
|---------|---------||-------------|--------------------------|
|---------|---------||-------------|-8----(8)-(8)----(8)-(8)--|
|---------|---------||-------------|-7b9==(7)-(7)----(7)r(7)--|
|---------|---------||---------|--------------------------|
|---------|---------||-------------|--------------------------|
|---------|---------||-------------|--------------------------|


  A5
  |                   |
  /                   /

|-------------------|-------------------------------------------|
|-------------------|--20-----(20)--20-----(20)--20----(20)-----|
|-5-----------------|--19b21==(19)r-19b21==(19)r-19b21r(19)-----|
|---7-(7)----(7)S21-|----------------------------------------2/-|
|-------------------|-------------------------------------------|
|-------------------|-------------------------------------------|


  D5
  |
  /

|-5h8p5---5-----------------|
|-------8---8p5-------------|
|---------------7-7S12\---5-|
|---------------------------|
|---------------------------|
|---------------------------|


  C5                        F5
  |                         |                   |
  /                         /                   /

                                                      ~~~~~~~~~~~~~~~
|-------------------------|------------------|--------------------------|
|-------------------------|------------------|--------------------------|
|-7-5---------------------|------------------|-10h12p10-(10)-12-(12)----|
|-----7-5-----------------|-----3p2/-12-10---|--------------------------|
|---------7-6-5-3-5-3-2-0-|-3p2--------------|--------------------------|
|-------------------------|------------------|--------------------------|


  D5                  C5
  |                     |
  /                     /

                                                        ~~
|-------------------|--------------------------------------|
|---------------8---|-----10-------12b13==(12)r(12)--------|
|------4-[5]--------|------------x-12b14==(12)r(12)p10-12--|
|-x-/5-------/9-----|-/10----/12---------------------------|
|-------------------|--------------------------------------|
|-------------------|--------------------------------------|


  A5
    |
    /

|--------------------------------------|
|--------/17-20b22==(20)-(20)r20-18-17-|
|-(12)\--------------------------------|
|--------------------------------------|
|--------------------------------------|
|--------------------------------------|


   |
   /

                           ~~
|-----------------------------------|
|-----------------------------------|
|-19-17-16-17p16-------------x-(17)-|
|----------------19-17-17h19--------|
|-----------------------------------|
|-----------------------------------|


  D5
  |
  /

|--17-----(17)--17-17-----(17)--17-17-----(17)--17-17-----(17)--17-|
|--20b22==(20)r----20b22==(20)r----20b22==(20)r----20b22==(20)r----|
|------------------------------------------------------------------|
|------------------------------------------------------------------|
|------------------------------------------------------------------|
|------------------------------------------------------------------|


  C5
   |
   /

|-19b20==(19)-(19)r17p16-17-19-17-17p16----17-------------------|
|---------------------------------------17----20p17-20p17----17-|
|---------------------------------------------------------19----|
|---------------------------------------------------------------|
|---------------------------------------------------------------|
|---------------------------------------------------------------|


  F5
   |
   /

|-------------------------------------------------|
|-20-20p19p17----17-------------------------------|
|-------------19----19p17-19p17----17-------------|
|-------------------------------19----19p17-15h17-|
|-------------------------------------------------|
|-------------------------------------------------|


|---------------|-----------------||-------------------------------|
|---------------|-----------------||-------------------------------|
|---------------|-----------------||-------------------------------|
|-14tr15--------|-(14tr15)--------||-(14tr15)----------------------|
|---------------|-----------------||-------------------------------|
|---------------|-----------------||-------------------------------|
|
| Gtrs I, II
|                                             PM--|    PM--|   PM|
|---------------|-----------------||-------------------------------|
|---------------|-----------------||-------------------------------|
|--9------------|--(9)------------||---9------------10-------7-----|
|--9------------|--(9)------------||--10------------12-------9-----|
|--7------------|--(7)------------||----------0-0-0----0-0-0---0-0-|
|--0------------|--(0)------------||-------------------------------|


 4/4
|-----------------------------------|-----------------------------------|
|-----------------------------------|-13-----(13)---(13)----------------|
|-----------------------------------|-12b14==(12)---(12)----------------|
|-(14tr15)----------------(14)\-----|-----------------------------------|
|-----------------------------------|-----------------------------------|
|-----------------------------------|-----------------------------------|
|
|   PM        PM--|   PM|       PM|            PM---|       PM--|   PM|
|-----------------------------------|-----------------------------------|
|-----------------------------------|-----------------------------------|
|-----------9-------5-------7-------|--9-----------------10-------7-----|
|----------10-------7-------9-------|-10-----------------12-------9-----|
|---0---------0-0-0---0-0-------0-0-|----------0--0---0-----0-0-0---0-0-|
|-----------------------------------|-----------------------------------|

[ Tab from: http://www.guitartabs.cc/tabs/d/dio/we_rock_tab.html ]
|----------------------------------|--------------------------|
|-(13)----------13-----(13)-(13)---|--------------------------|
|-(12)----------12-----(12)r(12)---|--------------------------|
|----------------------------------|--------------------------|
|----------------------------------|-12\----------------------|
|----------------------------------|-12\----------------------|
|
|   PM    PM--|    PM|        PM-|       PM--|    PM--|   PM|
|----------------------------------|--------------------------|
|----------------------------------|--------------------------|
|-------9--------5-------7---------|--9--------10-------7-----|
|------10--------7-------9---------|-10--------12-------9-----|
|---0-----0-0-0----0-0--------0--0-|-----0-0-0----0-0-0---0-0-|
|----------------------------------|--------------------------|


                                          D.S.S. al Dbl. Coda
                           F5     G5     A5       B5     C5  D5
  Gtrs I, II
  PM   PM--|   PM|   PM|
|------------------------|------------------|--------------------||
|------------------------|------------------|--------------------||
|----9-------5-----7-----|------------------|--------------------||
|---10-------7-----9-----|-3--(3)-5-(5)--7--|-(7)-9-(9)--10--12--||
|-0----0-0-0---0-0---0-0-|-3--(3)-5-(5)--7--|-(7)-9-(9)--10--12--||
|------------------------|-1--(1)-3-(3)--5--|-(5)-7-(7)---8--10--||


   Pre-chorus
    &&
    Gsus4  G          Gsus4  G          Gsus4  G          Gsus4  G
||------------------|-----------------|-----------------|------------------||
||o-----------------|-----------------|-----------------|-----------------o||
||--5--(5)-4-(4)----|-5--(5)-4-(4)----|-5--(5)-4-(4)----|-5--(5)-4-(4)-----||
||--5--(5)-5-(5)----|-5--(5)-5-(5)----|-5--(5)-5-(5)----|-5--(5)-5-(5)-----||
||o-----------------|-----------------|-----------------|-----------------o||
||------------------|-----------------|-----------------|------------------||


   Chorus
    (Am)
   4/4
       PM--|    PM--|   PM----|    PM--|   PM|   PM|
                                                      3x
||--------------------------|-------------------------||
||o-------------------------|------------------------o||
||---9-------10-------7-----|----9-------5-----7------||
||--10-------12-------9-----|---10-------7-----9------||
||o----0-0-0----0-0-0---0-0-|-0----0-0-0---0-0---0-0-o||
||--------------------------|-------------------------||


  F5     G5     A5       B5     C5  D5
|------------------|--------------------|
|------------------|--------------------|
|------------------|--------------------|
|-3--(3)-5-(5)--7--|-(7)-9-(9)--10--12--|
|-3--(3)-5-(5)--7--|-(7)-9-(9)--10--12--|
|-1--(1)-3-(3)--5--|-(5)-7-(7)---8--10--|


   Outro chorus
    (Am)
   4/4
       PM--|    PM--|   PM----|    PM--|   PM|   PM|
                                                      4x
||--------------------------|-------------------------||
||o-------------------------|------------------------o||
||---9-------10-------7-----|----9-------5-----7------||
||--10-------12-------9-----|---10-------7-----9------||
||o----0-0-0----0-0-0---0-0-|-0----0-0-0---0-0---0-0-o||
||--------------------------|-------------------------||


  Gtr III
     ~~~~~~~~~~~~~~~~~~~~~~~~~~~~~~~~~~~~~~~~~~~~~~
|-------------------------------|----------------------------|
|-------------------------------|----------------------------|
|-------------------------------|----------------------------|
|-7--9-----(9)--7-(7)-----------|-9----(9)---7-(7)-----------|
|-------------------------------|----------------------------|
|-------------------------------|----------------------------|
|
| Gtrs I, II
|      PM--|       PM---|   PM----|     PM---|     PM|   PM|
|-------------------------------|----------------------------|
|-------------------------------|----------------------------|
|----9---------10---------7-----|----9----------5------7-----|
|---10---------12---------9-----|---10----------7------9-----|
|------0-0--0------0--0-0---0-0-|-0-----0--0-0-----0-0---0-0-|
|-------------------------------|----------------------------|


             ~~~~~~~~~~~~~~~~~~~~~~
|----------------------------|--------------------------|
|----------------------------|--------------------------|
|----------------------------|--------------------------|
|--9h====10--7-(7)-----------|-(7)----------------------|
|----------------------------|--------------------------|
|----------------------------|--------------------------|
|
|    PM--|      PM---|   PM----|      PM--|   PM|   PM|
|----------------------------|--------------------------|
|----------------------------|--------------------------|
|--9--------10---------7-----|------9-------5-----7-----|
|-10--------12---------9-----|-----10-------7-----9-----|
|----0-0--0-----0--0-0---0-0-|--0-----0-0-0---0-0---0-0-|
|----------------------------|--------------------------|


     ~~~~~~~~~~~~~~~~~~~~~~~~~~~~~~~~~~~~~~~~~~~~~~
|-------------------------------|----------------------------|
|-------------------------------|----------------------------|
|-5--7-----(7)--5-(5)-----------|-7----(7)---5-(5)-----------|
|-------------------------------|----------------------------|
|-------------------------------|----------------------------|
|-------------------------------|----------------------------|
|
|      PM--|       PM---|   PM----|     PM---|     PM|   PM|
|-------------------------------|----------------------------|
|-------------------------------|----------------------------|
|----9---------10---------7-----|----9----------5------7-----|
|---10---------12---------9-----|---10----------7------9-----|
|------0-0--0------0--0-0---0-0-|-0-----0--0-0-----0-0---0-0-|
|-------------------------------|----------------------------|


            ~~~~~~
|---------------------------|----------------------------------|
|---------------------------|----------------------------------|
|--7h====9--5-(5)-----------|-5-4------4-----------------------|
|---------------------------|------7-5---7-5-3-7-5-3-----------|
|---------------------------|------------------------7-5-3-2h3-|
|---------------------------|----------------------------------|
|
|    PM--|     PM---|   PM----|        PM--|       PM|     PM|
|---------------------------|----------------------------------|
|---------------------------|----------------------------------|
|--9-------10---------7-----|------9-----------5-------7-------|
|-10-------12---------9-----|-----10-----------7-------9-------|
|----0-0-0-----0--0-0---0-0-|-0--------0-0-0-------0-0-----0-0-|
|---------------------------|----------------------------------|


                    ~     PM                          ~
|---------------------------------|----------------------------------|
|-------------------5-------------|-8----(8)-------------------------|
|-------------------5-----7-(5)---|-7b9==(7)r-7-----5-------[5]------|
|----------5----5h7---------------|-------------------7--------------|
|--0-3h5S7---7--------------------|----------------------------------|
|---------------------------------|----------------------------------|
|
|      PM--|        PM--|    PM-----|         PM--|     PM|     PM|
|---------------------------------|----------------------------------|
|---------------------------------|----------------------------------|
|--9-----------10---------7-------|-------9-----------5------7-------|
|-10-----------12---------9-------|------10-----------7------9-------|
|------0-0-0--------0-0-0----0--0-|-0---------0-0-0-----0-0-----0-0--|
|---------------------------------|----------------------------------|


|----------------------5-----8p5---------|
|-----------8b10==(8)r---8p5-----8b10====|
|----------------------------------------|
|----------------------------------------|
|----------------------------------------|
|----------------------------------------|
|
|    PM--|         PM----|       PM-------
|----------------------------------------|
|----------------------------------------|
|--9-------10----------------7-----------|
|-10-------12----------------9-----------|
|----0-0-0---------0---0-0-------0-----0-|
|----------------------------------------|


|------5--8p5h7p5---5---------------------|
|-(8)r------------8---8p6p5---5-----------|
|---------------------------7---7b9r(7)p5-|
|-----------------------------------------|
|-----------------------------------------|
|-----------------------------------------|
|
|-|           PM--|         PM|      PM-|
|-----------------------------------------|
|-----------------------------------------|
|---------9-----------5---------7---------|
|--------10-----------7---------9---------|
|--0----------0-0-0---------0-0------0--0-|
|-----------------------------------------|


   ~~                                                     ~~~~~~
|----------------------------------------|--------------------------------|
|----------------------------------------|--------------------------------|
|--------5--7-7b9====x-[7]---[7]---[7]---|-7r(7)p=5---7p5-----------------|
|--7-------------------------------------|----------7-----7-(7)-----------|
|----------------------------------------|--------------------------------|
|----------------------------------------|--------------------------------|
|
|    PM--|    PM-----|           PM--------|          PM--|     PM|   PM|
|----------------------------------------|--------------------------------|
|----------------------------------------|--------------------------------|
|--9-------10--------------7-------------|--------9----------5------7-----|
|-10-------12--------------9-------------|-------10----------7------9-----|
|----0-0-0----0----0-0-----------0-----0-|-0----------0-0-0-----0-0---0-0-|
|----------------------------------------|--------------------------------|


|-------------------------------------------------------|
|-20p17----17-20p17-------17-20p17----17-20p17----17-20p|
|-------19----------19-------------19----------19-------|
|-------------------------------------------------------|
|-------------------------------------------------------|
|-------------------------------------------------------|
|
|        PM---|                  PM---|            PM----
|-------------------------------------------------------|
|-------------------------------------------------------|
|--9-------------------10--------------------7----------|
|-10-------------------12--------------------9----------|
|--------0--0--0-----------------0--0--0-----------0--0-|
|-------------------------------------------------------|


|-------------------------------------------------|
|-17----------------------------------------------|
|----19p17----19p17-------------------------------|
|----------19-------19p17-19p17----19p17----------|
|-------------------------------19-------19p17S15-|
|-------------------------------------------------|
|
|-|            PM---|            PM|         PM|
|-------------------------------------------------|
|-------------------------------------------------|
|--------9-----------------5-----------7----------|
|-------10-----------------7-----------9----------|
|--0-----------0--0--0-----------0--0--------0--0-|
|-------------------------------------------------|


                                             ~~~~~
|------------------------------------------------|
|-------------------------------------------12---|
|-------------------------------------------12---|
|------------------------------------------------|
|------------------------------------------------|
|-17b19r(17)b19r==(17)b19r17-(17)---(17)\--------|
|
|         PM------|            PM---|        PM---
|------------------------------------------------|
|------------------------------------------------|
|--9----------------------10--------------7------|
|-10----------------------12--------------9------|
|---------0-----0---0----------0--0---0------0-0-|
|------------------------------------------------|


 ~~~~~~ PM---|     ~~~~~~~ PM------|
|-------------------------------------------|
|-(12)------------12-(12)-------------------|
|-(12)-14-12-14---12-(12)-14-12-14-12-------|
|-------------------------------------14\---|
|-------------------------------------------|
|-------------------------------------------|
|
|-|           PM--|        PM|         PM-|
|-------------------------------------------|
|-------------------------------------------|
|-------9--------------5---------7----------|
|------10--------------7---------9----------|
|---0---------0-0--0-------0--0--------0--0-|
|-------------------------------------------|


|----------------------------------------|
|----------13b15==(13)r-----13-12---10---|
|----------------------------------------|
|----------------------------------------|
|----------------------------------------|
|----------------------------------------|
|
|    PM--|          PM----|       PM------
|----------------------------------------|
|----------------------------------------|
|--9-------10----------------7-----------|
|-10-------12----------------9-----------|
|----0-0-0----------0---0-0-------0----0-|
|----------------------------------------|


                           ~~        ~~
|-10---------------------------------------*|
|----13----12-10-13p12p10-10-----12p10-----*|
|------------------------------------------*|
|------------------------------------------*|
|------------------------------------------*|
|------------------------------------------*|
|
|-|            PM---|        PM|       PM|
|------------------------------------------*|
|------------------------------------------*|
|--------9-----------------5------7--------*|
|-------10-----------------7------9--------*|
|--0-----------0--0--0-------0-0-------0-0-*|
|------------------------------------------*|



Comments