Dio - Strange Highways Chords & Tabs

 

Strange Highways Chords & Tabs

Dio Chords & Tabs

Version: 2 Type: Tab 0 ratings
1 star 2 stars 3 stars 4 stars 5 stars
comments

Strange Highways Tab

Strange Highways (Intro) - Dio
Tabbed by: Drboozler1129
Tuning: 1/2 Step down 
|

Eb-------------------------|-------------------------|
Bb-------------------------|-------------------------|
Gb----------0-----------0--|----------0-----------0--|
Db------4-----4---4---5----|------4-----4---4---3----|
Ab----2---2-----2---3------|----2---2-----2---1------|
Eb--0----------------------|--0----------------------|


[ Tab from: http://www.guitartabs.cc/tabs/d/dio/strange_highways_tab_ver_2.html ]
Eb----------0---------------------------0--------------------|
Bb------0-----0---0-----0-----------0-----0---0-----0--------|
Gb----0---0-----0-----0---0-------0---0-----0-----0---0------|
Db--2---------------2-------4-5-0---------------0-------4-5--|
Ab-----------------------------------------------------------|
Eb-----------------------------------------------------------|

Eb----------0---------------------------0--------------------|
Bb------0-----0---0-----0-------------1----------------------|
Gb----0---0-----0-----0---0---------0------------------------|
Db--------------------------4-5---2--------------------------|
Ab--4---------------4-----------3----------------------------|
Eb-----------------------------------------------------------|

Repeat last 2 sections
Comments