Dio - Stand Up And Shout Chords & Tabs

 

Stand Up And Shout Chords & Tabs

Dio Chords & Tabs

Version: 1 Type: Bass Tab 0 ratings
1 star 2 stars 3 stars 4 stars 5 stars
comments

Stand Up And Shout Bass Tab

Dio
Stand Up And Shout

Drew
dwr7713@aol.com

  Intro

 (0:05)
1---------------------------------------------------------------|
2---------------------------------------------------------------|
3-------------------------------------------------------2-0-2-4-|
4-5-5-5-5-------3-3-55555555555555555555555555555555555---------|

1----------------------------------------|
2----------------------------------------|
3----------------------------------------|
4-555555555555555333555555555555-5-4-3-2-|

  Verse

1----------------------------------------|
2----------------------------------------|
3--------------------------------2-0-2-4-|   X4
4-555555555555555333555555555555---------|

  Chorus

1-----------------------------------------------------------|
2-----------------------------------------------------------|
3-4-4-4444--------------------------------------------------|
4----------3-33333-5-55555-3-33333-7-77777-3-33333-11111111-|

1----------------------------------------|
2----------------------------------------|
3--------------------------------2-0-2-4-|   X2
4-555555555555555333555555555555---------|

  Verse

1----------------------------------------|
2----------------------------------------|
3--------------------------------2-0-2-4-|   X4
4-555555555555555333555555555555---------|

  Chorus

1------------------------------------------------------------|
2------------------------------------------------------------|
3-4-4-4444---------------------------------------------------|
4----------3-33333-5-55555-3-333333-7-77777-3-33333-11111111-|
[ Tab from: http://www.guitartabs.cc/tabs/d/dio/stand_up_and_shout_btab.html ]
1----------------------------------------|
2----------------------------------------|
3--------------------------------2-0-2-4-|   X2
4-555555555555555333555555555555---------|

  During Solo

1--------------------------------------------------------|
2--------------------------------------------------------|
3--------------------------------------------------------|
4-55555555-7-55555555-3-55555555-7-55555555-3-55555555-7-|

1----------------------------------------------------------|
2----------------------------------------------------------|
3----------------------------------------------------------|
4-55555555-3-55555555-7-55555555-3-333333-3--3-3--3-333333-|

1------------------------|
2------------------------|
3------------------------|
4-3--3-3--3-333333333333-|

  Verse

1----------------------------------------|
2----------------------------------------|
3--------------------------------2-0-2-4-|  X2
4-555555555555555333555555555555---------|

  Chorus

1----------------------------------------------------------|
2----------------------------------------------------------|
3-4-4-4444-------------------------------------------------|
4----------3-33333-5-55555-3-33333-7-77777-3-33333-8-88888-|

1------------------------------------------------------------------|
2------------------------------------------------------------------|
3------------------------------------------------------------------|
4-3-33333-5-55555-3-33333-7-77777-3-33333-8-88888-3-33333-11111111-|

  During 2nd Solo

1--------------------------------------|
2--------------------------------------|          last note let ring
3------------------------------2-0-2-4-|  X7      on the 7th time
4-5555555555555553335555555555---------|

1----------------------------------------------|
2----------------------------------------------|
3--------2-------------------------------------|
4-----------------------5-----5555555555-----5-|
Comments