Dio - Rainbow In The Dark Chords & Tabs

 

Dio Chords & Tabs

Version: 1 Type: Tab 1 rating
1 star 2 stars 3 stars 4 stars 5 stars
comments

Rainbow In The Dark Tab

   
io
Rainbow in the Dark

Gtr I (E A D G B E) - 'Rhythm'
Gtr II (E A D G B E) - 'Lead'
Gtr III (E A D G B E) - 'Keyboard'

 Intro
  Q=115
  G          A         F     F G       G5/D            A         F     F G
 4/4
  Gtr I
|----------|---------------------|-----3-------------|----------------------|
|----------|---------------------|-----3-------------|----------------------|
|----------|-2-------------------|-------------------|-2--------------------|
|-5--------|-2----------3----3-5-|-(5)---------------|-2----------3----3-5--|
|-5--------|-0----------3----3-5-|-(5)-------3-2-0---|-0----------3----3-5--|
|-3--------|------1--0--1--0-1-3-|-(3)-----3-------3-|------1--0--1--0-1-3--|
|
| Gtr III
|----------|------8-12-------8---|--8----8---8---8---|------8-12-------8----|
|----------|---10---------10---8-|-----8---8---8---8-|---10---------10---8--|
|----------|-----------10--------|-------------------|-----------10---------|
|----------|---------------------|-------------------|----------------------|
|----------|---------------------|-------------------|----------------------|
|----------|---------------------|-------------------|----------------------|


      G5/D            A         F     F G
|-----3-------------|---------------------|
|-----3-------------|---------------------|
|-------------------|-2-------------------|
|-(5)---------------|-2----------3----3-5-|
|-(5)-------3-2-----|-0----------3----3-5-|
|-(3)-----3-----3---|------1--0--1--0-1-3-|
|
|--8----8---8---8---|------8-12-------8---|
|-----8---8---8---8-|---10---------10---8-|
|-------------------|-----------10--------|
|-------------------|---------------------|
|-------------------|---------------------|
|-------------------|---------------------|


      G5/D            A         F     F G
|-----3-------------|---------------------|
|-----3-------------|---------------------|
|-------------------|-2-------------------|
|-(5)---------------|-2----------3----3-5-|
|-(5)-------3-2-0---|-0----------3----3-5-|
|-(3)-----3-------3-|------1--0--1--0-1-3-|
|
|--8----8---8---8---|------8-12-------8---|
|-----8---8---8---8-|---10---------10---8-|
|-------------------|-----------10--------|
|-------------------|---------------------|
|-------------------|---------------------|
|-------------------|---------------------|


                         Verse
                          A      F   F G       G5/D           A      F   F G
|-----------------------|----------------|-----3------------|----------------|
|-----------------------|----------------|-----3------------|----------------|
|-----------------------|-2--------------|------------------|-2--------------|
|-(5)-------(5)---------|-2------3---3-5-|-(5)--------------|-2------3---3-5-|
|-(5)-------(5)-12\-----|-0------3---3-5-|-(5)------3-2-0---|-0------3---3-5-|
|-(3)-------(3)-12\-----|----1-0-1-0-1-3-|-(3)----3-------3-|----1-0-1-0-1-3-|
|
|--8----8----8------8---|----------------|------------------|----------------|
|-----8---8------8----8-|----------------|------------------|----------------|
|-----------------------|----------------|------------------|----------------|
|-----------------------|----------------|------------------|----------------|
|-----------------------|----------------|------------------|----------------|
|-----------------------|----------------|------------------|----------------|


      G5/G G5/D   A      F   F G       G5/D           A      F   F G
|-----3----3----|----------------|-----3------------|----------------|
|-----3----3----|----------------|-----3------------|----------------|
|---------------|-2--------------|------------------|-2--------------|
|-(5)----5------|-2------3---3-5-|-(5)--------------|-2------3---3-5-|
|-(5)----5------|-0------3---3-5-|-(5)------3-2-0---|-0------3---3-5-|
|-(3)----3------|----1-0-1-0-1-3-|-(3)----3-------3-|----1-0-1-0-1-3-|


      G5/D          A      F   F G       G5/D           A      F   F G
|-----3-----------|----------------|-----3------------|----------------|
|-----3-----------|----------------|-----3------------|----------------|
|-----------------|-2--------------|------------------|-2--------------|
|-(5)-------------|-2------3---3-5-|-(5)--------------|-2------3---3-5-|
|-(5)------3-2-0--|-0------3---3-5-|-(5)------3-2-0---|-0------3---3-5-|
|-(3)----3--------|----1-0-1-0-1-3-|-(3)----3-------3-|----1-0-1-0-1-3-|


      G5/G G5/G    A      F   F G       G5/D           A      F   F G
|-----3----3-----|----------------|-----3------------|----------------|
|-----3----3-----|----------------|-----3------------|----------------|
|----------------|-2--------------|------------------|-2--------------|
|-(5)----5----5--|-2------3---3-5-|-(5)--------------|-2------3---3-5-|
|-(5)----5----5--|-0------3---3-5-|-(5)------3-2-0---|-0------3---3-5-|
|-(3)----3----3--|----1-0-1-0-1-3-|-(3)----3-------3-|----1-0-1-0-1-3-|


                    Pre-Chorus
      G5/G G5/D      E  E5 E5  F        F5      E        E5       F
|-----3----3-------|-------------|----------------|-----------------|
|-----3----3-------|----5--5-----|------6---------|------5--(5)-----|
|------------------|----4--4-----|------5---------|------4--(4)-----|
|-(5)----5---------|-2--2--2---3-|-(3)--3-------2-|-(2)--2--(2)---3-|
|-(5)----5---2-0---|-2---------3-|-(3)----------2-|-(2)-----------3-|
|-(3)----3-------3-|-0---------1-|-(1)------3-1-0-|-(0)-----------1-|


                    Chorus
          G          A         F     F G
|------------------|---------------------|
|------------------|---------------------|
|------------------|-2-------------------|
|-(3)-----5-(5)----|-2----------3----3-5-|
|-(3)-----5-(5)----|-0----------3----3-5-|
|-(1)-0-1-3-(3)----|------1--0--1--0-1-3-|
|
| Gtr III
|------------------|------8-12-------8---|
|------------------|---10---------10---8-|
|------------------|-----------10--------|
|------------------|---------------------|
|------------------|---------------------|
|------------------|---------------------|


      G5/D            A         F     F G
|-----3-------------|---------------------|
|-----3-------------|---------------------|
|-------------------|-2-------------------|
|-(5)---------------|-2----------3----3-5-|
|-(5)-------3-2-0---|-0----------3----3-5-|
|-(3)-----3-------3-|------1--0--1--0-1-3-|
|
|--8----8---8---8---|------8-12-------8---|
|-----8---8---8---8-|---10---------10---8-|
|-------------------|-----------10--------|
|-------------------|---------------------|
|-------------------|---------------------|
|-------------------|---------------------|


                     Verse
                      A      F   F G       G5/D           A      F   F G
|-------------------|----------------|-----3------------|----------------|
|-------------------|----------------|-----3------------|----------------|
|-------------------|-2--------------|------------------|-2--------------|
|-(5)---------------|-2------3---3-5-|-(5)--------------|-2------3---3-5-|
|-(5)---------------|-0------3---3-5-|-(5)------3-2-0---|-0------3---3-5-|
|-(3)---------------|----1-0-1-0-1-3-|-(3)----3-------3-|----1-0-1-0-1-3-|
|
| Gtr III
|--8----8---8---8---|----------------|------------------|----------------|
|-----8---8---8---8-|----------------|------------------|----------------|
|-------------------|----------------|------------------|----------------|
|-------------------|----------------|------------------|----------------|
|-------------------|----------------|------------------|----------------|
|-------------------|----------------|------------------|----------------|


      G5/G G5/D   A      F   F G       G5/D           A      F   F G
|-----3----3----|----------------|-----3------------|----------------|
|-----3----3----|----------------|-----3------------|----------------|
|---------------|-2--------------|------------------|-2--------------|
|-(5)----5------|-2------3---3-5-|-(5)--------------|-2------3---3-5-|
|-(5)----5------|-0------3---3-5-|-(5)------3-2-0---|-0------3---3-5-|
|-(3)----3------|----1-0-1-0-1-3-|-(3)----3-------3-|----1-0-1-0-1-3-|


      G5/D          A      F   F G       G5/D           A      F   F G
|-----3-----------|----------------|-----3------------|----------------|
|-----3-----------|----------------|-----3------------|----------------|
|-----------------|-2--------------|------------------|-2--------------|
|-(5)-------------|-2------3---3-5-|-(5)--------------|-2------3---3-5-|
|-(5)------3-2-0--|-0------3---3-5-|-(5)------3-2-0---|-0------3---3-5-|
|-(3)----3--------|----1-0-1-0-1-3-|-(3)----3-------3-|----1-0-1-0-1-3-|


      G5/G G5/G    A      F   F G       G5/D           A      F   F G
|-----3----3-----|----------------|-----3------------|----------------|
|-----3----3-----|----------------|-----3------------|----------------|
|----------------|-2--------------|------------------|-2--------------|
|-(5)----5----5--|-2------3---3-5-|-(5)--------------|-2------3---3-5-|
|-(5)----5----5--|-0------3---3-5-|-(5)------3-2-0---|-0------3---3-5-|
|-(3)----3----3--|----1-0-1-0-1-3-|-(3)----3-------3-|----1-0-1-0-1-3-|


                    Pre-Chorus
      G5/G G5/D      E  E5 E5  F        F5      E        E5       F
|-----3----3-------|-------------|----------------|-----------------|
|-----3----3-------|----5--5-----|------6---------|------5--(5)-----|
|------------------|----4--4-----|------5---------|------4--(4)-----|
|-(5)----5---------|-2--2--2---3-|-(3)--3-------2-|-(2)--2--(2)---3-|
|-(5)----5---2-0---|-2---------3-|-(3)----------2-|-(2)-----------3-|
|-(3)----3-------3-|-0---------1-|-(1)------3-1-0-|-(0)-----------1-|


                    Chorus
          G          A      F   F G       G5/D           A      F   F G
|------------------|----------------|-----3------------|----------------|
|------------------|----------------|-----3------------|----------------|
|------------------|-2--------------|------------------|-2--------------|
|-(3)-----5-(5)----|-2------3---3-5-|-(5)--------------|-2------3---3-5-|
|-(3)-----5-(5)----|-0------3---3-5-|-(5)------3-2-0---|-0------3---3-5-|
|-(1)-0-1-3-(3)----|----1-0-1-0-1-3-|-(3)----3-------3-|----1-0-1-0-1-3-|


              Guitar Solo
               A        F   F G
|------------|------------------|
|------------|------------------|
|------------|-2----------------|
|-(5)--------|-2--------3---3-5-|
|-(5)--------|-0--------3---3-5-|
|-(3)--------|------1-0-1-0-1-3-|
|
| Gtr II
|                             ~~~
|------------|------------------|
|------------|------------------|
|------------|------------------|
|------------|-5b7r=============|
|------------|--------------5-3-|
|------------|------------------|


      G5/D              A             F   F G
|-----3---------------|---------------------------|
|-----3---------------|---------------------------|
|---------------------|-2-------------------------|
|-(5)-----------------|-2-------------3---3-5-----|
|-(5)-------3-2-0-----|-0-------------3---3-5-----|
|-(3)-----3-------3---|-----------1-0-1-0-1-3-----|
|
|~~~~~~~~~
|---------------------|---------------------------|
|---------------------|---------------------------|
|---------------------|-----5h7p5S4-5-5-4-5-4h5p4-|
|---------------------|-5-7-----------------------|
|-(3)---2---------5-7-|---------------------------|
|---------------------|---------------------------|


         F           G G5/D    A                F          F     G
|--------3-------------3-----|------------------------------------------|
|--------3-------------3-----|------------------------------------------|
|----------------------------|-2----------------------------------------|
|-(5)----------------5-------|-2-----------------3----------3-----5-----|
|-(5)----------------5-------|-0-----------------3----------3-----5-----|
|-(3)----------------3-------|---------1----0----1----0-----1-----3-----|
|
|----------------------------|------------------------------------------|
|----------------------------|---------5-8---------8-10-12-13-12-10-----|
|--5p4h5p4h5p4h5p4h5-4-5\----|-----5-7-----10-9-10------------------12--|
|----------------------------|---7--------------------------------------|
|----------------------------|------------------------------------------|
|----------------------------|------------------------------------------|


         G5/D
|---------3------------------------------------------|
|---------3------------------------------------------|
|----------------------------------------------------|
|-(5)------------------------------------------------|
|-(5)-----------------------------3----2-----0-------|
|-(3)-----------------------3-------------------3----|
|
|----------------------------------------------------|
|-10--12-10h12p10----10----10-12-12h13p==12-10-------|
|-----------------12----12---------------------12b14-|
|----------------------------------------------------|
|----------------------------------------------------|
|----------------------------------------------------|


  A         F                  F    G       G5/D
|-------------------------------------|-----3---------------|
|-------------------------------------|-----3---------------|
|---2---------------------------------|---------------------|
|---2--------3-------------------3--5-|-(5)-----------------|
|---0--------3-------------------3--5-|-(5)-------3--2-0----|
|-------1-0--1-------0-----------1--3-|-(3)-----3-----------|
|
|            T       T
|-------------------------------------|------------------0--|
|-------------------------------------|---------------------|
|-(12)------14p12p9h14p9--------------|---------------------|
|------------------------12b14r(12)---|-12-----10-9\--------|
|-------------------------------------|---------------------|
|-------------------------------------|---------------------|


  A                                   F                       F        G
|----------------------------------------------------------------------------|
|----------------------------------------------------------------------------|
|--2-------------------------------------------------------------------------|
|--2-----------------------------------3-----------------------3--------5----|
|--0-----------------------------------3-----------------------3--------5----|
|-----------------1--------0-----------1-----------0-----------1--------3----|
|
|-12-15-15p13p12-10-12-10-------------------------10-------------------------|
|-------------------------13-12-10-13-12-10-12-13----13-12-13-12-10----------|
|-------------------------------------------------------------------12-14b16r|
|----------------------------------------------------------------------------|
|----------------------------------------------------------------------------|
|----------------------------------------------------------------------------|


       G5/D
|------3-------------------------------------|
|------3-------------------------------------|
|--------------------------------------------|
|--(5)---------------------------------------|
|--(5)-------3--------2--------0-------------|
|--(3)----3--------------------------3-------|
|
|--------------------------------------------|
|--------------------17----------17----------|
|-(14)------------14----------14----------14-|
|-----------17b19-------17b19-------17b19----|
|--------------------------------------------|
|--------------------------------------------|

[ Tab from: http://www.guitartabs.cc/tabs/d/dio/rainbow_in_the_dark_tab.html ]
  A                                F              F     G
|----------------------------------------------------------------|
|----------------------------------------------------------------|
|--2-------------------------------------------------------------|
|--2--------------------------------3--------------3-----5-------|
|--0--------------------------------3--------------3-----5-------|
|-----------------1--------0--------1-----0--------1-----3-------|
|
|-17----------17----------------------17-------------17----------|
|-------------------------17----------------------17-------------|
|----------14----------14----------14----------14-------------14-|
|----17b19-------17b19-------17b19-------17b19----------17b19----|
|----------------------------------------------------------------|
|----------------------------------------------------------------|


         G5/D             G        G5/D              G
|--------3--------------------------3----------------------------------|
|--------3--------------------------3----------------------------------|
|----------------------------------------------------------------------|
|-(5)----------------------5--------------------------5----------------|
|-(5)----------------------5--------------------------5----------------|
|-(3)----------------------3--------------------------3----------------|
|
|-17--19---19b20-19-20-19-17----17-17-20-17-19-17----17-19-17-19-17----|
|----------------------------20-------------------20----------------20-|
|----------------------------------------------------------------------|
|----------------------------------------------------------------------|
|----------------------------------------------------------------------|
|----------------------------------------------------------------------|


  A                                   F                 F           G
|-------------------------------------------------------------------------------|
|-------------------------------------------------------------------------------|
|--2----------------------------------------------------------------------------|
|--2-----------------------------------3-----------------3-----------5----------|
|--0-----------------------------------3-----------------3-----------5----------|
|--------------------1--------0--------1--------0--------1-----------3----------|
|
|-17-20-17-19-17----17-20-17-19-17----17-20-17-19-17----19-17-20-17-19-17-20-17-|
|----------------20----------------20----------------20-------------------------|
|-------------------------------------------------------------------------------|
|-------------------------------------------------------------------------------|
|-------------------------------------------------------------------------------|
|-------------------------------------------------------------------------------|


               G5/D
|---------------3-------------------------------------------------------------|
|---------------3-------------------------------------------------------------|
|-----------------------------------------------------------------------------|
|-(5)-------------------------------------------------------------------------|
|-(5)--------------------------------------------3-----------2--------0-------|
|-(3)-----------------------------------3-----------------------------------3-|
|
|-19--17-20-17-19-17-20-17-19-17-20-17-19-17----19-17-20-17-19-17-------------|
|--------------------------------------------20-------------------20-20p17-20-|
|-----------------------------------------------------------------------------|
|-----------------------------------------------------------------------------|
|-----------------------------------------------------------------------------|
|-----------------------------------------------------------------------------|


  A                              F                          F                 G
|--------------------------------------------------------------------------------------|
|--------------------------------------------------------------------------------------|
|--2-----------------------------------------------------------------------------------|
|--2------------------------------3--------------------------3-----------------5-------|
|--0------------------------------3--------------------------3-----------------5-------|
|---------1-----------0-----------1-----------------0--------1-----------------3-------|
|
|--------17p15p12h15p12p10h12h15-------12-------12-15p12----------12-------12-15p12----|
|-20b22--------------------------15b17----15b17----------15-15b17----15b17----------15-|
|--------------------------------------------------------------------------------------|
|--------------------------------------------------------------------------------------|
|--------------------------------------------------------------------------------------|
|--------------------------------------------------------------------------------------|


                    G5/D                       G        G5/D
|--------------------3-----------------------------------3---------------------------------------|
|--------------------3-----------------------------------3---------------------------------------|
|------------------------------------------------------------------------------------------------|
|-(5)-------------------------------------------5------------------------------------------------|
|-(5)-------------------------------------------5------------------------------------------------|
|-(3)-------------------------------------------3------------------------------------------------|
|
|-------12-------12-15p12----------12-------12-15p12----------12-------12-15p12------------------|
|-15b17----15b17----------15-15b17----15b17----------15-15b17----15b17----------15-15b17.5-15-12-|
|------------------------------------------------------------------------------------------------|
|------------------------------------------------------------------------------------------------|
|------------------------------------------------------------------------------------------------|
|------------------------------------------------------------------------------------------------|


  E      E5                E5                 F
|------------------------------------------------|
|---------5-----------------5--------------------|
|---------4-----------------4--------------------|
|--2------2-----------------2------------------3-|
|--2-------------------------------------------3-|
|--0-------------------------------------------1-|
|
|------------------------------------------------|
|-15b17--13h15p13p12h13p12p10h12p10p8h10p8-12-13-|
|------------------------------------------------|
|------------------------------------------------|
|------------------------------------------------|
|------------------------------------------------|


           F5                              E
|---------------------------------------------|
|-----------6---------------------------------|
|-----------5---------------------------------|
|-(3)-------3------------------------------2--|
|-(3)--------------------------------------2--|
|-(1)----------------------3------------1--0--|
|
|---------------------------------------------|
|-12h13p12-10-12-13-10-12-12-13p12p10-(10)----|
|---------------------------------------------|
|---------------------------------------------|
|---------------------------------------------|
|---------------------------------------------|


  E                 E5                              F
|---------------------------------------------------------|
|-------------------5------------(5)----------------------|
|-------------------4------------(4)----------------------|
|--2----------------2------------(2)----------------3-----|
|--2------------------------------------------------3-----|
|--0------------------------------------------------1-----|
|
|---------------------------------------------------------|
|---------------------------------------------------------|
|-12h14p12-10h12p10-9h10p9-7h9p7--5h7p5-4h5p4-2h4p2-0h2p0-|
|---------------------------------------------------------|
|---------------------------------------------------------|
|---------------------------------------------------------|


                                     Verse
  F           G                       A      F   F G
|-----------------------------------|----------------|
|-----------------------------------|----------------|
|-----------------------------------|-2--------------|
|--3-----------5--(5)---------------|-2------3---3-5-|
|--3-----------5--(5)---------------|-0------3---3-5-|
|--1---0---1---3--(3)---------------|----1-0-1-0-1-3-|
|
|-----------------------|----------------|
|-----------------------------------|----------------|
|------------------[7]b9r(7)-5---|----------------|
|---------------------------------7-|----------------|
|-----------------------------------|----------------|
|-----------------------------------|----------------|


      G5/D           A      F   F G       G5/D           A      F   F G
|-----3------------|----------------|-----3------------|----------------|
|-----3------------|----------------|-----3------------|----------------|
|------------------|-2--------------|------------------|-2--------------|
|-(5)--------------|-2------3---3-5-|-(5)--------------|-2------3---3-5-|
|-(5)------3-2-0---|-0------3---3-5-|-(5)------3-2-0---|-0------3---3-5-|
|-(3)----3-------3-|----1-0-1-0-1-3-|-(3)----3-------3-|----1-0-1-0-1-3-|


      G5/D           A      F   F G       G5/G G5/D   A      F   F G
|-----3------------|----------------|-----3----3----|----------------|
|-----3------------|----------------|-----3----3----|----------------|
|------------------|-2--------------|---------------|-2--------------|
|-(5)--------------|-2------3---3-5-|-(5)----5------|-2------3---3-5-|
|-(5)------3-2-0---|-0------3---3-5-|-(5)----5------|-0------3---3-5-|
|-(3)----3-------3-|----1-0-1-0-1-3-|-(3)----3------|----1-0-1-0-1-3-|


      G5/D           A      F   F G       G5/D           A      F   F G
|-----3------------|----------------|-----3------------|----------------|
|-----3------------|----------------|-----3------------|----------------|
|------------------|-2--------------|------------------|-2--------------|
|-(5)--------------|-2------3---3-5-|-(5)--------------|-2------3---3-5-|
|-(5)------3-2-0---|-0------3---3-5-|-(5)------3-2-0---|-0------3---3-5-|
|-(3)----3-------3-|----1-0-1-0-1-3-|-(3)----3-------3-|----1-0-1-0-1-3-|


      G5/D           A      F   F G       G5/G G5/G    A      F   F G
|-----3------------|----------------|-----3----3-----|----------------|
|-----3------------|----------------|-----3----3-----|----------------|
|------------------|-2--------------|----------------|-2--------------|
|-(5)--------------|-2------3---3-5-|-(5)----5----5--|-2------3---3-5-|
|-(5)------3-2-0---|-0------3---3-5-|-(5)----5----5--|-0------3---3-5-|
|-(3)----3-------3-|----1-0-1-0-1-3-|-(3)----3----3--|----1-0-1-0-1-3-|


                                                        Pre-Chorus
      G5/D           A      F   F G       G5/G G5/D      E  E5 E5  F
|-----3------------|----------------|-----3----3-------|-------------|
|-----3------------|----------------|-----3----3-------|----5--5-----|
|------------------|-2--------------|------------------|----4--4-----|
|-(5)--------------|-2------3---3-5-|-(5)----5---------|-2--2--2---3-|
|-(5)------3-2-0---|-0------3---3-5-|-(5)----5---2-0---|-2---------3-|
|-(3)----3-------3-|----1-0-1-0-1-3-|-(3)----3-------3-|-0---------1-|


       F5      E        E5 E5  F        F5      E        E5       F
|----------------|---------------|----------------|-----------------|
|------6---------|------5--5-----|------6---------|------5--(5)-----|
|------5---------|------4--4-----|------5---------|------4--(4)-----|
|-(3)--3-------2-|-(2)--2--2---3-|-(3)--3-------2-|-(2)--2--(2)---3-|
|-(3)----------2-|-(2)---------3-|-(3)----------2-|-(2)-----------3-|
|-(1)------3-1-0-|-(0)---------1-|-(1)------3-1-0-|-(0)-----------1-|


                    Chorus
          G          A         F     F G
|------------------|---------------------|
|------------------|---------------------|
|------------------|-2-------------------|
|-(3)-----5-(5)----|-2----------3----3-5-|
|-(3)-----5-(5)----|-0----------3----3-5-|
|-(1)-0-1-3-(3)----|------1--0--1--0-1-3-|
|
| Gtr III
|------------------|------8-12-------8---|
|------------------|---10---------10---8-|
|------------------|-----------10--------|
|------------------|---------------------|
|------------------|---------------------|
|------------------|---------------------|


      G5/D            A         F     F G
|-----3-------------|---------------------|
|-----3-------------|---------------------|
|-------------------|-2-------------------|
|-(5)---------------|-2----------3----3-5-|
|-(5)-------3-2-0---|-0----------3----3-5-|
|-(3)-----3-------3-|------1--0--1--0-1-3-|
|
|--8----8---8---8---|------8-12-------8---|
|-----8---8---8---8-|---10---------10---8-|
|-------------------|-----------10--------|
|-------------------|---------------------|
|-------------------|---------------------|
|-------------------|---------------------|


      G5/DG G5/D      A         F     F G
|-----3-----3-------|---------------------|
|-----3-----3-------|---------------------|
|-------------------|-2-------------------|
|-(5)-----5---------|-2----------3----3-5-|
|-(5)-----5---------|-0----------3----3-5-|
|-(3)-----3---------|------1--0--1--0-1-3-|
|
|--8----8---8---8---|------8-12-------8---|
|-----8---8---8---8-|---10---------10---8-|
|-------------------|-----------10--------|
|-------------------|---------------------|
|-------------------|---------------------|
|-------------------|---------------------|


      G5/D            A         F     F G
|-----3-------------|---------------------|
|-----3-------------|---------------------|
|-------------------|-2-------------------|
|-(5)---------------|-2----------3----3-5-|
|-(5)-------3-2-0---|-0----------3----3-5-|
|-(3)-----3-------3-|------1--0--1--0-1-3-|
|
|--8----8---8---8---|------8-12-------8---|
|-----8---8---8---8-|---10---------10---8-|
|-------------------|-----------10--------|
|-------------------|---------------------|
|-------------------|---------------------|
|-------------------|---------------------|


                     Outro
      G5/D            A      F   F G       G5/D           A      F   F G
|-----3-------------|----------------|-----3------------|----------------|
|-----3-------------|----------------|-----3------------|----------------|
|-------------------|-2--------------|------------------|-2--------------|
|-(5)---------------|-2------3---3-5-|-(5)--------------|-2------3---3-5-|
|-(5)-------3-2-0---|-0------3---3-5-|-(5)------3-2-0---|-0------3---3-5-|
|-(3)-----3---------|----1-0-1-0-1-3-|-(3)----3-------3-|----1-0-1-0-1-3-|
|
|--8----8---8---8---|----------------|------------------|----------------|
|-----8---8---8---8-|----------------|------------------|----------------|
|-------------------|----------------|------------------|----------------|
|-------------------|----------------|------------------|----------------|
|-------------------|----------------|------------------|----------------|
|-------------------|----------------|------------------|----------------|


      G5/G G5/D   A      F   F G       G5/D
|-----3----3----|----------------|-----3------------|
|-----3----3----|----------------|-----3------------|
|---------------|-2--------------|------------------|
|-(5)----5------|-2------3---3-5-|-(5)--------------|
|-(5)----5------|-0------3---3-5-|-(5)------3-2-0---|
|-(3)----3------|----1-0-1-0-1-3-|-(3)----3-------3-|


  A      F   F G       G5/D
|----------------|-----3------------*|
|----------------|-----3------------*|
|-2--------------|------------------*|
|-2------3---3-5-|-(5)--------------*|
|-0------3---3-5-|-(5)------3-2-0---*|
|----1-0-1-0-1-3-|-(3)----3-------3-*|



Comments