Dio - Rainbow In The Dark Chords & Tabs

 

Rainbow In The Dark Chords & Tabs

Dio Chords & Tabs

Version: 4 Type: Bass Tab 0 ratings
1 star 2 stars 3 stars 4 stars 5 stars
comments

Rainbow In The Dark Bass Tab

  Intro

1-----  ----------------------------|
2-----  ----------------------------|  3X
3-----  --------------------3-2-----|
4--3--  -5-5-1-0-1-3--3-3-3-----5-3-|

  Verse

1----------------------------|
2----------------------------|  8X
3--------------------3-2-----|
4-5-5-1-0-1-3--3-3-3-----5-3-|

  Chorus

1---------------------------------------------------------------|
2---------------------------------------------------------------|
3---------------------------------------------------------------|
4-0-0-0-0-0-0-0-0-1-1-1-1-1-1-1-1-0-0-0-0-0-0-0-0-1--0-1-3--1-3-|

1-----------------------------------------|
2-----------------------------------------|
3--------------------3-2------------------|
4-5-5-1-0-1-3--3-3-3-----5-3--5-5-1-0-1-3-|

  Verse

1----------------------------|
2----------------------------|  8X
3--------------------3-2-----|
4-5-5-1-0-1-3--3-3-3-----5-3-|

  Chorus

1---------------------------------------------------------------|
2---------------------------------------------------------------|
3---------------------------------------------------------------|
4-0-0-0-0-0-0-0-0-1-1-1-1-1-1-1-1-0-0-0-0-0-0-0-0-1--0-1-3--1-3-|

1-------------------------------------|
2-------------------------------------|
3-------------------------------------|
4--0---0---0---0---0---0--3-3-3-3-3-3-|

  During Solo

1----------------------------|
2----------------------------|  8X
3--------------------3-2-----|
4-5-5-1-0-1-3--3-3-3-----5-3-|
[ Tab from: http://www.guitartabs.cc/tabs/d/dio/rainbow_in_the_dark_btab_ver_4.html ]
1---------------------------------------------------------------|
2---------------------------------------------------------------|
3---------------------------------------------------------------|
4-0-0-0-0-0-0-0-0-1-1-1-1-1-1-1-1-0-0-0-0-0-0-0-0-1--0-1-3--1-3-|

  Bride Out

1-------------------------------------|
2-------------------------------------|
3-------------------------------------|
4--0---0---0---0---0---0--3-3-3-3-3-3-|

  Verse

1----------------------------|
2----------------------------|  8X
3--------------------3-2-----|
4-5-5-1-0-1-3--3-3-3-----5-3-|

  Chorus

1-----------------------------------------------------------------|
2-----------------------------------------------------------------|
3-----------------------------------------------------------------|
4-0-0-0-0-0-0-0-0-1-1-1-1-1-1-1-1-0-0-0-0-0-0-0-0-1-1-1-1-1-1-1-1-|

1-------------------------------|
2-------------------------------|
3-------------------------------|
4-0-0-0-0-0-0-0-0-1--0-1-3--1-3-|

1------------------------------------------------------------------------|
2------------------------------------------------------------------------|
3------------------------------------------------------------------------|
4--0---0---0---0---0---0---0---0---0---0---0---0---0---0---0-3-3-3-3-3-3-|

  Out

1----------------------------------|
2----------------------------------|  8X  do this however many times you want
3--------------------3-2-----------|      because it fades out, I do it 8 cause
4-5-5-1-0-1-3--3-3-3-----5-3-------|      its more like the verse
Comments