Dio - Rainbow In The Dark Chords & Tabs

 

Rainbow In The Dark Chords & Tabs

Dio Chords & Tabs

Version: 3 Type: Bass Tab 0 ratings
1 star 2 stars 3 stars 4 stars 5 stars
comments

Rainbow In The Dark Bass Tab

Artist: Dio
Title: Rainbow In The Dark
Album: Holy Diver
Transcribed by: Costas TG
Email: costastg@hotmail.com

Intro                   
G-----|
D-----|
A-----|
E--3--|

G-------------------------------|
D-------------------------------|
A---------------------3-2-------|
E-5-5--1-0-1-3--3-3-3-----5-3---|(Main Riff x3)
                                                 
G---------------|
D---------------|
A---------------|
E-5-5--1-0-1-3--|(x1)                                        
     
Verse          
G-------------------------------|
D-------------------------------|
A---------------------3-2-------|
E-5-5--1-0-1-3--3-3-3-----5-3---|(Main Riff x3)
                                                 
G---------------|
D---------------|
A---------------|
E-5-5--1-0-1-3--|(x1)                                                  
[ Tab from: http://www.guitartabs.cc/tabs/d/dio/rainbow_in_the_dark_btab_ver_3.html ]
Prechorus
G------------------------------------------------------------------|
D------------------------------------------------------------------|
A------------------------------------------------------------------|
E--0-0-0-0-0-0-0-0-1-1-1-1-1-1-1-1-0-0-0-0-0-0-0-0-1-1-1-1-1-1-1-1-|
                                                  
Chorus
G-------------------------------|
D-------------------------------|
A---------------------3-2-------|
E-5-5--1-0-1-3--3-3-3-----5-3---|
                                                 
G---------------|
D---------------|
A---------------|
E-5-5--1-0-1-3--|  

Solo
G-------------------------------|
D-------------------------------|
A---------------------3-2-------|
E-5-5--1-0-1-3--3-3-3-----5-3---|(Main Riff x8)
                                                 
G------------------------------------------------------------------|
D------------------------------------------------------------------|
A------------------------------------------------------------------|
E--0-0-0-0-0-0-0-0-1-1-1-1-1-1-1-1-0-0-0-0-0-0-0-0-1-1-1-1-1-1-1-1-|
Comments