Dio - Rainbow In The Dark Chords & Tabs

 

Rainbow In The Dark Chords & Tabs

Dio Chords & Tabs

Version: 2 Type: Bass Tab 0 ratings
1 star 2 stars 3 stars 4 stars 5 stars
comments

Rainbow In The Dark Bass Tab

Artist:Dio
Song:Rainbow In The Dark
Album:Holy Diver
Tabbed By:Gary Hricewich
Email:snapper2001@msn.com
[ Tab from: http://www.guitartabs.cc/tabs/d/dio/rainbow_in_the_dark_btab_ver_2.html ]
                                                 
       Intro                   3x
G-----|---------------------------|-------------|
D-----|*-------------------------*|-------------|
A-----|*-0-0-------------3-2-0---*|-0-0---------|
E---3-|------1-0-1-3-3-3-------3--|-----1-0-1-3-|
                                                 
                                         
     Verse          
G---|---------------------------------|
D---|*-------------------------------*|
A---|*-0-0-------------3-2-0---------*|
E---|------1-0-1-3-3-3-------3--------|
                                         
                                                  
     Bridge
G------------------------------------------------|
D------------------------------------------------|
A------------------------------------------------|
E---0-0-0-0-0--1-1-1-1-1--0-0-0-0-0--1-0-1-3-1-3-|
                                                  
                        
    Chorus 
G----------------------|
D----------------------|
A---0--0--0--0--0--0---|
E--------------------3-|
                        
                                                                        
    Bridge 2
G----------------------------------------------------------------------|
D----------------------------------------------------------------------|
A----------------------------------------------------------------------|
E---0-0-0-0-0--1-1-1-1-1--0-0-0-0-0--1-1-1-1-1--0-0-0-0-0--1-0-1-3-1-3-|
                                                                        
                                                    
    Chorus 2
G--------------------------------------------------|
D--------------------------------------------------|
A---0--0--0--0--0--0--0--0--0--0--0--0--0--0--0--0-|
E--------------------------------------------------|
Comments