Dio - Push Chords & Tabs

 

Push Chords & Tabs

Dio Chords & Tabs

Version: 1 Type: Tab 0 ratings
1 star 2 stars 3 stars 4 stars 5 stars
comments

Push Tab

   
DIO
"PUSH"
KILLING THE DRAGON (2002)
Tabbed by Rod Zombie
rodzombie_89@hotmail.com


This is not the whole song

Volume swells
|---------------------------------|
|---------------------------------|
|---------------------------------|
|-5-5-5-5-5-5-5-5-----------------|
|-5-5-5-5-5-5-5-5-----------------|
|-3-3-3-3-3-3-3-3-----------------|


Main riff 2 (3 times)
not sure about this                  Fill in second time
|---------------------------------|
|---------------------------------|
|-9-7--12-10-8-10--7-8-10---------|
|-9-7--12-10-8-10-----------------|
|---------------------------------|
|---------------------------------|

|-----------------------------------------|---------------|
|-----------------------------12--------12|---------------|
|-----9-7--12-10-8-10---------12--------12|---------------|
|---2-9-7--12-10-8-10---------12--------12|---------------|
|---2-------------------------------------|-3-5-6--6-5-2--|
|---0------------------0-0-0-------0-0-0--|---------------|

|-----------------------------------------|---------------|
|-----------------------------12--------10|---------------|
|-----9-7--12-10-8-10---------12--------10|---------------|
|---2-9-7--12-10-8-10---------12--------10|---------------|
|---2-------------------------------------|-3-5-6--6-5-2--|
|---0------------------0------------------|---------------|

"you´ve been riding a carrousel..."
|------------------------------------------|
|------------------------------------------|
|------------------------------------------|
|2-2-2-2-2-2-2-2-2-2-2-2-2-2-----5--4--3--2|
|2-2-2-2-2-2-2-2-2-2-2-2-2-2-----5--4--3--2|
|0-0-0-0-0-0-0-0-0-0-0-0-0-0-----3--2--1--0|
 . . . . . . . . . . . . . . pm

|---------------------------------------------|
|---------------------------------------------|
|---------------------------------------------|
|5-7-7-9--5-7-7-9---2-------------------------|
|5-7-7-9--5-7-7-9---2-------------------------|
|3-5-5-7--3-5-5-7---0-------------------------|
[ Tab from: http://www.guitartabs.cc/tabs/d/dio/push_tab.html ]
|------------------------------------------|
|------------------------------------------|
|------------------------------------------|
|2-2-2-2-2-2-2-2-2-2-2-2-2-2-----5--4--3--2|
|2-2-2-2-2-2-2-2-2-2-2-2-2-2-----5--4--3--2|
|0-0-0-0-0-0-0-0-0-0-0-0-0-0-----3--2--1--0|
 . . . . . . . . . . . . . . pm

|---------------------------------------|
|---------------------------------------|
|---------------------------------------|
|5-7-9--5-7-9---2-----------------------|
|5-7-9--5-7-9---2-----------------------|
|3-5-7--3-5-7---0-----------------------|

C
Before you´re in the corner can´t crawl away

pre-chorus (it´s not so correct)
|---------------------------------------|
|---------------------------------------|
|---------------------------------------|
|---------------------------------------|
|7-9-10--10-9--7-9-10--10-9-------------|
|---------------------------------------|

|---------------------------------------|
|---------------------------------------|
|---------------------------------------|
|---------------------------------------|
|-10--8--6--4--3--1---------------------|
|---------------------------------------|


|---------------------------------------|
|---------------------------------------|
|---------------------------------------|
|-7-6-5-8-------------------------------|
|-7-6-5-8-------------------------------|
|-5-4-3-6-------------------------------|

chorus: same as intro:

|-------------------------------------|---------------|
|-------------------------------------|---------------|
|-----9-7--12-10-8-10-----------------|---------------|
|---2-9-7--12-10-8-10----8-7----------|---------------|
|---2--------------------8-7----------|-3-5-6--6-5-2--|
|---0--------------------6-5----------|---------------|

|-----------------------------------------|---------------|
|-----------------------------12--------12|---------------|
|-----9-7--12-10-8-10---------12--------12|---------------|
|---2-9-7--12-10-8-10---------12--------12|---------------|
|---2-------------------------------------|-3-5-6--6-5-2--|
|---0------------------0-0-0-------0-0-0--|---------------|

i will correct more and more.

By the way, ENJOY
Comments