Dio - Like The Beat Of A Heart Chords & Tabs

 

Like The Beat Of A Heart Chords & Tabs

Dio Chords & Tabs

Version: 1 Type: Bass Tab 0 ratings
1 star 2 stars 3 stars 4 stars 5 stars
comments

Like The Beat Of A Heart Bass Tab

Artist:Dio
Song:Like The Beat Of A Heart
Album:Sacred Heart
Tabbed By:Gary Hricewich
E-mail:snapper2001@msn.com
[ Tab from: http://www.guitartabs.cc/tabs/d/dio/like_the_beat_of_a_heart_btab.html ]
                                                     
   Part 1                                End Part 1
G-----------------------------|---------------------|
D-----------------------------|---------------------|
A-------------2---------2-----|-----------2---------|
E---0-3-5-3-5---3-0-3-5---3-0-|-0-3-5-3-5---3-0-3-5-|
                                                     
                                                          
    
G-----------------------------|--------------------------|
D-----------------------------|--------------------------|
A-------------2---------2-----|-----------2--------------|
E---0-3-5-3-5---3-0-3-5---3-0-|-0-3-5-3-5---3-0-3--5-7-5-|
                                                          
                                                                
   Part 2 
G--------------------------------------------------------------|
D--------------------------------------------------------------|
A---5-7-7-7-7---------------5-5-5-5-5-5--3-3-3-3-3-3-3-------5-|
E--------------3-3-3-3-3-3-------------------------------------|
                                                                
                                                      
                                           End Part 2  
G----------------------------------------------------|
D----------------------------------------------------|
A---7-7-7-7--3-3-3-3-3-3--5-5-5-5-5-5--7-7-7-7-7-7-7-|
E----------------------------------------------------|
                                                      
                                                              
 Theres a Beast/STOP   Part 1 Part2  Theres a Beast    STOP
G---------------------|------|-----|-------------------------|
D---------------------|------|-----|-------------------------|
A---3-3-3-3-3-3-------|------|-----|-3-3-3-3---------3-3-3-3-|
E---------------------|------|-----|---------5-5-5-5---------|
                                                              
                                                              
 Drum Beats     Part 3             8x             Part 3 2x
G--------------|-----------------------|---------|---------|
D--------------|-----------------------|---------|---------|
A--------------|-----------------------|---------|---------|
E---5-7-0-0----|-5-7-0-0-5-7-0-0-5-7-0-|-5-5-5-5-|---------|
                                                              
                                                         
  
G-------------------------------------------------------|
D-------------------------------------------------------|
A-----------3-3-3-3---5-7-7-7-7-3-3-3-3-5-5-5-5-7-7-7-7-|
E---5-5-5-5---------------------------------------------|
                                                         
                                                             
 Theres a Beast  
G-----------------------------------------------------------|
D-----------------------------------------------------------|
A---3-3-3-3---------3-3-3-3---------3-3-3-3-5-5-5-5---7-5-3-|
E-----------5-5-5-5---------5-5-5-5-------------------------|
                                                             
                                                       
Part 1 2x  Part 3 3x   A      Part 3 3x  B  Alt A+B/Fade Out
G---------|--------|---------|-------|-----------------------
D---------|--------|---------|-------|-----------------------
A---------|--------|-3-2-----|-------|-3-2---3---------------
E---------|--------|-----5-3-|-------|-----5-----------------
Comments