Dio - Holy Diver Chords & Tabs

 

Holy Diver Chords & Tabs

Dio Chords & Tabs

Version: 7 Type: Tab 0 ratings
1 star 2 stars 3 stars 4 stars 5 stars
comments

Holy Diver Tab

----------------------------------------------------------------------------
			 Holy Diver-Dio                                    
----------------------------------------------------------------------------
Tabbed by: jschoolcraft 
Email: jschoolcraft@hotmail.com
[ Tab from: http://www.guitartabs.cc/tabs/d/dio/holy_diver_tab_ver_7.html ]
Tuning:standard
       ..     ..        ..   ..         ..   ..     (riff 1)
e|-------------------------------------------------------------------------|
B|-------------------------------------------------------------------------|
G|-------------------------------------------------------------------------|
D|--5-55-5-55-5-7-8---5-55-5-55-8-3---5-55-5-55-8-3-5-3-5------------------|
A|--3-33-3-33-3-5-6---3-33-3-33-6-1---3-33-3-33-6-1-3-1-3------------------|
E|-------------------------------------------------------------------------|
      ..   ..           ..   ..         ..   ..
e|-------------------------------------------------------------------------|
B|-------------------------------------------------------------------------|
G|-------------------------------------------------------------------------|
D|--5-55-5-55-5-7-8---5-55-5-55-8-3---5-55-5-55-8-3-5-3--------------------|
A|--3-33-3-33-3-5-6---3-33-3-33-6-1---3-33-3-33-6-1-3-1-6------------------|
E|------------------------------------------------------4------------------|
      .. . .. . ..         .. . .. . .. . .. . .. . .. .
e|--------------------------------------------------------|
B|--------------------------------------------------------|repeat this 2x
G|--------------------------------------------------------|
D|--5-55-5-55-5-55-5-----5-55-5-55-3-33-3-33--------------|
A|--3-33-3-33-3-33-3-6---3-33-3-33-1-11-1-11-6-66-6-66-6--|  (Riff 2)
E|-------------------4-----------------------4-44-4-44-4--|

e|--0---0------------------------------------------------|
B|--0---0------------------------------------------------|  
G|--0---0------------------------------------------------| 
D|--5---3--55-33-------3-55-33-------3-55-33-------------| 
A|--3---1--33-11-66--6-1-33-11-66--6-1-33-11-6-----------| 
E|--0---0--------44--4---------44--4---------4-----------|    
   
Play riff 2 again


Everything below is right after the solo. 
.. . .. . ..         .. . .. . .. . .. . .. . .. .
e|--------------------------------------------------------|
B|--------------------------------------------------------|repeat this 2x
G|--------------------------------------------------------| again.
D|--5-55-5-55-5-55-5-----5-55-5-55-3-33-3-33--------------|
A|--3-33-3-33-3-33-3-6---3-33-3-33-1-11-1-11-6-66-6-66-6--|
E|-------------------4-----------------------4-44-4-44-4--|
      ..  ..           ..   .. 
e|------------------------------------|  
B|------------------------------------|  repeat that over and over then it 
G|------------------------------------|          slowly fades 
D|--5-55-5-55-5-7-8--5-55-5-55-8-3----|
A|--3-33-3-33-3-5-6--3-33-3-33-6-1----|
E|------------------------------------|
Palm mute = . (it's easier to use than pm,lol)
      Any questions email me and ill get back yo you a.s.a.p. but be sure to set
the r.e. as "holy diver" again my email is jschoolcraft@hotmail.com
Comments