Dio - Holy Diver Chords & Tabs

 

Holy Diver Chords & Tabs

Dio Chords & Tabs

Version: 6 Type: Tab 0 ratings
1 star 2 stars 3 stars 4 stars 5 stars
comments

Holy Diver Tab

Holy Diver - Dio
Tabbed by Underhander

I got sick of not finding this solo anywhere, so i tabbed it out.  It was extremely
difficult to tab so bare with me if theres mistakes.

It's tuned a 1/2 step down

x = Palm Mute
* = Pinch Harmonic

Eb|----------------------------------------------------------------||
Bb|-11b12r11-9-----------------------------------------------------||
Gb|-11b12r11-9-11-9----------9-8-6-6~/-----------------------------||
Db|-----------------11-9-9~--9-8-6-6~/-----------------------------||
Ab|--------------------x---------------9--7-6h7p6h7p6h7p6h7p6h7-/--||
Eb|----------------------------------------------------------------||



Eb|----------------------------------------------------------------||
Bb|----------------------------------------------------------------||
Gb|-9----9/8-8-8~--------------------------------------6*----------||
Db|---11-9/8-8-8~--9--11--11~---9----------------------------------||
Ab|----------------x--x---------x-11-10-9--7--9b10r9~--------------||
Eb|-------------------------------x--x--x--x-----------------------||



Eb|-19b20-17-16----------------19----------------------------------||
Bb|-------------17-16-19-17-16----17-16~---------------------------||
Gb|----------------------------------------------------------------||
Db|----------------------------------------------------------------||
Ab|----------------------------------------------------------------||
Eb|----------------------------------------------------------------||



Eb|-19-17-16-------------------------------------------------------||
Bb|----------19-17-16----------------------------------------------||
Gb|-------------------18-16-18-18b20r18-16----16~/-----------------||
Db|----------------------------------------18----------------------||
Ab|----------------------------------------------------------------||
Eb|----------------------------------------------------------------||


[ Tab from: http://www.guitartabs.cc/tabs/d/dio/holy_diver_tab_ver_6.html ]
Eb|-----5-4---7----------------------------------------------------||
Bb|-5-7-x-x-5-x-5-4-7-5-4----------------------9-10----------------||
Gb|-x-x-----x---x-x-x-x-x-6-6-8-8-8-9-9--9/11----------------------||
Db|-----------------------x-x-x-x-x-x-x----------------------------||
Ab|----------------------------------------------------------------||
Eb|----------------------------------------------------------------||



Eb|----------------------------------------------------------------||
Bb|-9h10p9p7--9-10--9h10p9p7-------9-10--9h10p9p7-------9-10-------||
Gb|--------------------------8-9-9----------------8-9-9------------||
Db|----------------------------------------------------------------||
Ab|----------------------------------------------------------------||
Eb|----------------------------------------------------------------||



Eb|----------------------------------------------------------------||
Bb|-9h10p9p7-------9-10--9h10p9p7--7-9-7---------------------------||
Gb|----------8-9-9-----------------------9-8-9-8h9p8p6-------------||
Db|----------------------------------------------------9-----------||
Ab|----------------------------------------------------------------||
Eb|----------------------------------------------------------------||



Eb|-------------------------------------------7--------------------||
Bb|-9-10--9h10p9p7-9-7-------9-10--9h10p9p7-9---9h10p9p7/9 10------||
Gb|--------------------8-9-9---------------------------------------||
Db|----------------------------------------------------------------||
Ab|----------------------------------------------------------------||
Eb|----------------------------------------------------------------||



Eb|-12-11-9--------12-11-9-11p9----9-------------------------------||
Bb|--------12-10-9--------------12---12p9-10p9----9----------------||
Gb|--------------------------------------------11---11p9-8-8/9-9---||
Db|----------------------------------------------------------------||
Ab|----------------------------------------------------------------||
Eb|----------------------------------------------------------------||



Eb|----------------------------------------------------------------||
Bb|------------------12-12-12--10-10-10-9--------------------------||
Gb|-9/11-11-11/13-13----------------------11-9-11b12-9-8~----------||
Db|----------------------------------------------------------------||
Ab|----------------------------------------------------------------||
Eb|----------------------------------------------------------------||

ENJOY!
Comments