Dio - Holy Diver Chords & Tabs

 

Holy Diver Chords & Tabs

Dio Chords & Tabs

Version: 5 Type: Tab 0 ratings
1 star 2 stars 3 stars 4 stars 5 stars
comments

Holy Diver Tab

Okay this is how I play it and i know you can play it in another way but i prefer this one.


E|-------------------------------------------|
A|-4---4---4---4---4---4---4---6---7---------|
D|---6---6---6---6---6---6---6---8---9-------|
G|-------------------------------------------|
B|-------------------------------------------|
e|-------------------------------------------|


E|-------------------------------------------|
A|-4---4---4---4---4---7---2-----------------|
D|---6---6---6---6---6---9---4---------------|
G|-------------------------------------------|
B|-------------------------------------------|
e|-------------------------------------------|


E|-------------------------------------------|
A|-4---4---4---4---4---7---2---4---2---4-----|
D|---6---6---6---6---6---9---4---6---4---6---|
G|-------------------------------------------|
B|-------------------------------------------|
e|-------------------------------------------|

Ronnie James dio goes: Ooohhhh
[ Tab from: http://www.guitartabs.cc/tabs/d/dio/holy_diver_tab_ver_5.html ]
E|-------------------------------------------|
A|-4---4---4---4---4---4---4---6---7---------|
D|---6---6---6---6---6---6---6---8---9-------|
G|-------------------------------------------|
B|-------------------------------------------|
e|-------------------------------------------|

Ronnie James dio goes: Yeah yeah

E|-------------------------------------------|
A|-4---4---4---4---4---7---2-----------------|
D|---6---6---6---6---6---9---4---------------|
G|-------------------------------------------|
B|-------------------------------------------|
e|-------------------------------------------|


E|---------------------------------------------------|
A|-4---4---4---4---4---7---2---4---2------------2----|
D|---6---6---6---6---6---9---4---6---4---2---2-----4-|
G|---------------------------------------2---2-------|
B|---------------------------------------------------|
e|---------------------------------------------------|


If you got eny complain or eny questions on the tab e-mail me at larsbrundin30@hotmail.com
Iron Maiden rules, Jimi Hendrix was the best guitarist ever and god bye.
Comments