Dio - Holy Diver Chords & Tabs

 

Holy Diver Chords & Tabs

Dio Chords & Tabs

Version: 3 Type: Tab 0 ratings
1 star 2 stars 3 stars 4 stars 5 stars
comments

Holy Diver Tab

Intro
Medium-Heavy Distortion whole song
[ Tab from: http://www.guitartabs.cc/tabs/d/dio/holy_diver_tab_ver_3.html ]
e |--------------------------------------------------------------
B |--------------------------------------------------------------
G |6--6-6-6--6-6-8-9--6--6-6-6/8/9-4--6--6-6-6/8/9-4--6-4-6------
D |6--6-6-6--6-6-8-9--6--6-6-6/8/9-4--6--6-6-6/8/9-4--6-4-6------
A |4--4-4-4--4-4-6-7--4--4-4-4/6/7-2--4--4-4-4/8/9-4--4-2-4------
E |--------------------------------------------------------------

e |--------------------------------------------------------------
B |--------------------------------------------------------------
G |6--6-6-6--6-6-8-9--6--6-6-6/8/9-4--6--6-6-6/8/9-4--6-4-2---2-4
D |6--6-6-6--6-6-8-9--6--6-6-6/8/9-4--6--6-6-6/8/9-4--6-4-2---2-4
A |4--4-4-4--4-4-6-7--4--4-4-4/6/7-4--4--4-4-4/6/7-2--4-2-0---0-2
E |--------------------------------------------------------------
Comments