Dio - Holy Diver Correct Chords & Tabs

 

Holy Diver Correct Chords & Tabs

Dio Chords & Tabs

Version: 1 Type: Tab 2 ratings
1 star 2 stars 3 stars 4 stars 5 stars
comments

Holy Diver Correct Tab

   
Holy Diver - Dio
----------------
Off the Holy Diver album


Normal tuning



Riff A
E|--------------------------------|
B|--------------------------------|
G|--------------------------------|
D|--------------------------------|
A|-10-10-10-10-10-10-10-12-13-----|   
E|-8--8--8--8--8--8--8--10-11-----|


Riff B                                                   Riff C
E|---------------------------|---------------------------|-------------|
B|---------------------------|---------------------------|-------------|
G|---------------------------|---------------------------|-------------|
D|---------------------------|---------------------------|-------------|
A|-10-10-10-10-10-10-10-13-8-|-10-10-10-10-10-10-10-13-8-|-10-8-10-----|
E|-8--8--8--8--8--8--8--11-6-|-8--8--8--8--8--8--8--11-6-|-8--6-8------|

Repeat riff A and B twice, leave out c. After you play A then B twice in a row Play this

Instead of C but right after B in C's place.

[ Tab from: http://www.guitartabs.cc/tabs/d/dio/holy_diver_correct_tab.html ]
Riff D                                                  (Repeat twice before goin onto Riff E)
E|--------------------|-----------------------------------------------------------------|
B|--------------------|-----------------------------------------------------------------|
G|--------------------|-----------------------------------------------------------------|
D|--------------------|-----------------------------------------------------------------|
A|-10-8-6--6-6-6-8-10-|-10-10-10-10-10-10-10-6-10-10-10-10-8-8-8-8-6-6-6-6-6-6-6-6-8-10-|
E|-8--6-4--4-4-4-6-8--|-8--8--8--8--8--8--8--4-8--8--8--8--6-6-6-6-4-4-4-4-4-4-4-4-6-8--|



Riff E
E|--------------------------------------------|
B|--------------------------------------------|
G|--------------------------------------------|
D|--------------------------------------------|
A|-10-10--8-8--6-6---6-8-10-10--8-8--5---8-10-|
E|-8--8---6-6--4-4---4-6-8--8---6-6--3---6-8--|


Once you finish with Riff E go onto Playing Riff A and the song all over again. And that

Is pretty much the whole song. You will still need to listen to the song to get the little

Things that the guitarist does but other than that thats correct. Keep on rockin' with Dio


                                Tyler
Comments