Dio - Holy Diver Chords & Tabs

 

Holy Diver Chords & Tabs

Dio Chords & Tabs

Version: 3 Type: Bass Tab 0 ratings
1 star 2 stars 3 stars 4 stars 5 stars
comments

Holy Diver Bass Tab

  Intro

1--------------------------------------------------|
2--------------------------------------------------|
3-3-333-333-5-6--3-333-33-6-1--3-333-33-6-1--3-1-3-|
4--------------------------------------------------|

1--------------------------------------------------------|
2--------------------------------------------------------|
3-3-333-333-5-6--3-333-33-6-1--3-333-33-6-1--3-1-------1-|
4------------------------------------------------4---4---|

  Verse

1----------------------------------------------------------------|
2----------------------------------------------------------------|
3-3-333-333-333-333-333-333-33--3-333-331-111-11-----------------|
4-----------------------------4-----------------4-444-444-444-44-|

1-------------------------------------------------------------|
2-------------------------------------------------------------|
3-3-333-333-333-333-333-333-----3-333-331-111-113-333-333-333-|
4-----------------------------4-------------------------------|

  Chorus

1--------------------------------------------------------------------|
2--------------------------------------------------------------------|
3-------------------3-333-333-5-6--3-333-33-6-1--3-333-33-6-1--3-1-3-|
4-4-444-444-444-44---------------------------------------------------|

  Verse

1----------------------------------------------------------------|
2----------------------------------------------------------------|
3-3-333-333-333-333-333-333-33--3-333-331-111-11---------------1-|
4-----------------------------4-----------------4-444-444-444-4--|

1-------------------------------------------------------------|
2-------------------------------------------------------------|
3-3-333-333-333-333-333-333-----3-333-331-111-113-333-333-333-|
4-----------------------------4-------------------------------|

  Chorus

1------------------------------------------------------------------|
2------------------------------------------------------------------|
3-----------------1-111-111-11-3-3--1-1---------1--3-3--1-1------1-|
4-4-444-444-444-44-----------------------4-4--4-------------3------|
[ Tab from: http://www.guitartabs.cc/tabs/d/dio/holy_diver_btab_ver_3.html ]
1----------------------------------|
2----------------------------------|
3-3-3--1-1----------1--3-3--1-1----|
4------------4-4--4--------------4-|

  Verse

1----------------------------------------------------------------|
2----------------------------------------------------------------|
3-3-333-333-333-333-333-333-33--3-333-331-111-11---------------1-|
4-----------------------------4-----------------4-444-444-444-4--|

1--------------------------------------------------|
2--------------------------------------------------|
3-3-333-333-333-333-333-333-----3-333-331-111-11-3-|
4-----------------------------4--------------------|

  During Solo

1----------------------------------------------------------------------|
2---------1--------------1-------1-0---------1--------------1------1-3-|
3-1-3------3-----3-3------3----------1-3------3-----3-3------3---------|
4----------------------------------------------------------------------|

1------------------------------------------------------------------------|
2---------1--------------1---1-0-----------------------------------------|
3-1-3------3-----3-3------3----------------------1-111-111-111-----------|
4--------------------------------4-444-444-444-44--------------4-444-444-|

1----------------------------------------------|
2-----------------1-0--------------------------|
3-------1-111-11------------------------3--1---|
4-444-44--------------4-444-444-444------------|

  Verse

1----------------------------------------------------------------|
2----------------------------------------------------------------|
3-3-333-333-333-333-333-333-33--3-333-331-111-11---------------1-|
4-----------------------------4-----------------4-444-444-444-4--|

1-------------------------------------------------------------|
2-------------------------------------------------------------|
3-3-333-333-333-333-333-333-----3-333-331-111-113-333-333-333-|
4-----------------------------4-------------------------------|

  Bridge to Out

1---------------------------------------------------------|
2---------------------------------------------------------|
3----------------1-111-111-111----------------------1--3--|
4-4-444-444-444-----------------4-444-444-444---4---------|

  Out

1-----------------------------|
2-----------------------------|  10X
3-3-333-333-5-6--3-333-33-6-1-|
4-----------------------------|
Comments