Dio - Born On The Sun Chords & Tabs

 

Born On The Sun Chords & Tabs

Dio Chords & Tabs

Version: 1 Type: Tab 0 ratings
1 star 2 stars 3 stars 4 stars 5 stars
comments

Born On The Sun Tab

tabbed by Haunted
e|-----------------------------------------------
B|-----------------------------------------------
G|------3-----3---3-----3-------3-----3---3----3-
D|------3-----3---3-----3-------3-----3---3----3-
A|-----------------------------------------------
E|-1-1----1-1---1---1-1----4-4---4-4---4---4-4---
  pm--   pm--  pm- pm--   pm--  pm--  pm- pm--
e|---------------------------------------------
B|---------------------------------------------
G|--------------3-------------------------3--5-
D|----5--3------3---------------5--3------3--5-
A|----------5---1---3--1--------------5---1--3-
E|-3---------------------1---3-----------------


[ Tab from: http://www.guitartabs.cc/tabs/d/dio/born_on_the_sun_tab.html ]
Comments