Dinosaur Jr - I Dont Think So Chords & Tabs

 

I Dont Think So Chords & Tabs

Dinosaur Jr Chords & Tabs

Version: 1 Type: Tab 0 ratings
1 star 2 stars 3 stars 4 stars 5 stars
comments

I Dont Think So Tab

   
Artist:  Dinosaur Jr.
Song:    I Don't Think So
Album:   Without A Sound (1994)


This song is played in standard tuning with a capo on the 5th fret.
I got an email from someone (sorry, I don't remember your name) that
clued me in to the way J. Mascis uses the capo.  So thanks to that man indeed.  The tab
was written with respect to the 5th fret capo.  Enjoy.


h - hammer on
p - pull off
b - bend string up
r - release bend
/ - slide up
\ - slide down


Intro:

E|-------------------------------------------------3------|
B|------0-1-3-------3-1-0----------0-1-3-------3/5---5\3--|
G|----------------0-----------2--------------0------------|
D|----2-----------0-------------2------------0------------|
A|--3-------------2-------------0------------2------------|
E|--------------------------------------------------------|


E|---------------------------------------3/----|
B|------0-1-3-------3-1-0----------0-1-3-------|
G|----------------0-----------2----------------|
D|----2-----------0-------------2--------------|
A|--3-------------2-------------0--------------|
E|---------------------------------------------|

Verse A:
E|--------------------2--2--2-----------0-----------0------|
B|--1----1--1--------3---3--3----------3--3--------1--3----|
G|--2----2--2-------2----2--2---------4-----------0--------|
D|--2----2--2------0-----0--0--------4-----------2---------|
A|--0----0--0-----0---------------2-2---------3-3----------|
E|---------------------------------------------------------|

E|--------0----------------2-2-0------------------|
B|-------1--3------1-0---3-------3----------------|
G|------0-------2--2-2---2---------2-0---2-0---0--|
D|-----2--------2--------0-------------4-----4----|
A|--3-3---------0--------0------------------------|
E|------------------------------------------------|

E|--------------------2--2--2-----------0-----------0------|
B|--1----1--1--------3---3--3----------3--3--------1--3----|
G|--2----2--2-------2----2--2---------4-----------0--------|
D|--2----2--2------0-----0--0--------4-----------2---------|
A|--0----0--0-----0---------------2-2---------3-3----------|
E|---------------------------------------------------------|

E|--------0----------------2-2-0----|---------------|
B|-------1--3------1-0---3-------3--|---------------|
G|------0-------2--2-2---2----------|2-0---0--------|
D|-----2--------2--------0----------|----4---4-2-0--|
A|--3-3---------0--------0----------|---------------|
E|----------------------------------|---------------|
                                    *stop here the first time through the
                                     verse and go on to the chorus

Verse B:

E|----------------------------------|
B|----------------------------------|
G|--0----0---0--0----4----4---4--4--| <~repeat 2x in the second verse,
D|--2----2---2--2----4----4---4--4--|   3x in the third verse
A|--3----3---3--3----2----2---2--2--|
E|----------------------------------|

E|-------2-2-0-----|
B|--3----------3---|
G|--2--------------|
D|--0--------------|
A|--0--------------|
E|-----------------|


Chorus:

E|--0---0--0--0----2---2--2--2----3--3--3---3----|
B|--1---1--1--1----3---3--3--3----3--3--3---3----|
G|--0---0--2--2----2---2--2--2----4--4--4h5-4----|
D|--2---2--2--2----0---0--0--0----5--5--5---5----|
A|--3---3--3--3----0---0--0--0-------------------|
E|-----------------------------------------------|
[ Tab from: http://www.guitartabs.cc/tabs/d/dinosaur_jr/i_dont_think_so_tab.html ]
E|--0---0--0--0----2---2--2--2----3--3--3---3----|
B|--1---1--1--1----3---3--3--3----3--3--3---3----|
G|--0---0--2--2----2---2--2--2----4--4--4h5-4----|
D|--2---2--2--2----0---0--0--0----5--5--5---5----|
A|--3---3--3--3----0---0--0--0-------------------|
E|-----------------------------------------------|

E|------------------------------------2-2-0------------------|
B|----------------------------------3-------3----------------|
G|--0----0---0--0----4----4---4--4--2---------2-0---0--------|
D|--2----2---2--2----4----4---4--4--0-------------4---4-2-0--|
A|--3----3---3--3----2----2---2--2--0------------------------|
E|-----------------------------------------------------------|

E|--0---0--0--0----2---2--2--2----3--3--3---3----|
B|--1---1--1--1----3---3--3--3----3--3--3---3----|
G|--0---0--2--2----2---2--2--2----4--4--4h5-4----|
D|--2---2--2--2----0---0--0--0----5--5--5---5----|
A|--3---3--3--3----0---0--0--0-------------------|
E|-----------------------------------------------|

Solo:

E|-----------------------------------------------------------|
B|-----------------------------------------------------------|
G|--2b4--2b4--2b4--2b4r2------2b4r3------2b4r2-0---0-2-0-0---|
D|-----------------------------------------------2-----------|

E|---------------------------------------------------------------------|
B|---------------------------------------------8-8----10b12r10---8-8-8-|
G|------------------------------------------/9-----9-----------9-------|
D|---------5-7-7b9*-9-9r7-5---5-7/10-9-10------------------------------|
A|--/5-7--------------------7------------------------------------------|
                  *hold bend for the next note

E|--7h10p7-10/12-12-12b14r12-10-10-10p9p8p7-8-7h8p7----------------7----|
B|--------------------------------------------------10b12-8p7-8-10---10-|

E|--7-8-7----------------------------------------------------|
B|--------8-7------------------------------------------------|
G|------------7---7-7-7-7-7-7h9p7---7/9h12-7-7---7\5-5-4\0-0-|
D|-----------------------------------------------------------|
A|-----------------------------------------------------------|

E|----------------------------------|
B|----------------------------------|
G|----------------------------------|
D|-------5-5-5-7b9r7----7b9r7-5-----|
A|--/5-7------------------------7-5-|
    ^
    The verse starts again at this point.


Song Progression:

Intro
Verse A
Chorus
Verse A
Verse B
Chorus
Solo
Verse A
Verse B
Chorus

Lyrics:

In the morning
It's the last time that I saw her face
In that special way to me
Without a warnin'
She pulled every trick to name a few
What was I supposed to be

I'd like to think she cried for me
But I don't know
Her memories won't let me be
Just can't let go
In the morning
Is when I think about her
Could it be she cried for me
I don't think so

In the evening
I don't think it was a peaceful scene
Seemed to me a little rough
She was leavin'
But she forgot to leave a piece of me
I didn't know she was that tough

I don't know why she took me
I don't know what else to be

I'd like to think she cried for me
But I don't know
Her memories won't let me be
Just can't let go
In the morining
Is when I think about her
Could it be she cried for me
I don't think so

[Solo]

Is there somethin'
That I could do to make her feel a thing
I don't know what to expect
Guess there's one thing
I got left but then I could be wrong
Maybe that's the thing she wrecked

I don't know why she took me
I don't know what else to be
Hope she's diggin' bein' free

But does she cry for me
I don't know
Her memories won't let me be
Just can't let go
But in the morning
Is when I think about her
Could it be she cried for me
I don't know
I'd like to think she cried for me
I don't think so
Comments