Dinosaur Jr - Goin Home Chords & Tabs

 

Goin Home Chords & Tabs

Dinosaur Jr Chords & Tabs

Version: 1 Type: Tab 0 ratings
1 star 2 stars 3 stars 4 stars 5 stars
comments

Goin Home Tab

   
#----------------------------------PLEASE NOTE---------------------------------#
#This file is the author's own work and represents their interpretation of the #
#song. You may only use this file for private study, scholarship, or research. #
#------------------------------------------------------------------------------##
From: gt0698a@prism.gatech.edu (by way of ajl694@nwu.edu (andy))

Dinosaur Jr.'s "Goin Home" on the album WHERE YOU BEEN.  (Tab by Eugene Lee) 

[ Tab from: http://www.guitartabs.cc/tabs/d/dinosaur_jr/goin_home_tab.html ]
     Fmaj7       C                              G7               Am 
E|---0-------0-------------------------------------------1-------1-------0-3/5-
B|-----1 ------1------1-------1----------------------------0--------2---------
G|-----------------0----------0--------0---------------------0---------2------
D|-3------3------2---------2--------0-----0-----------0----------------------
A|-----------------------3-------2-----------0-----2 ----------0--0--0--------
E|----------------------------------------------3-----------------------------



     Fmaj7
E|---0-|-0------0------------------0-------0----------0---------|--
B|---1-|---1------1--------1--0--1---1---1---1----------1---1---|--(not quite 
G|---2-|-----2------2------------------2-------2----------2----.|-- sure about
D|-3---|--------------0--3-----------------------0--3----------.|-- this whole
A|-----|--------------------------------------------------------|-- part.) 
E|-----|--------------------------------------------------------|--


Chorus chords:   C  G   C  G   Fmaj7  Fm  G#
                        ^                 ^
Fmaj7 --->  133210   (Use your thumb for the low E string)  
G     --->  320003
Fm    --->  133111  (I'm not quite sure if J.Mascis plays this chord during
that                       chorus part). 
C     --->  332010
G7    --->  320001
Am    --->  X02210




Any comments or questions would be greatly appreciated.  Send it to this 
address:  gt0698a@prism.gatech.edu
Thanks. 

-



Comments