Dimmu Borgir - Under Korpens Vinger Chords & Tabs

 

Under Korpens Vinger Chords & Tabs

Dimmu Borgir Chords & Tabs

Version: 1 Type: Tab 0 ratings
1 star 2 stars 3 stars 4 stars 5 stars
comments

Under Korpens Vinger Tab

----------------------------------------------------------------------------
		     Under Korpens Vinger - Dimmu Borgir
                             For All Tid [1994]  
----------------------------------------------------------------------------
Tabbed by: UNKNOWNer
Email:andrej_paulus@net.hr

Tuning: Standard Tuning 

Key: 
x - Mute note
. - tremolo pick

RIff 1a:
e|-------------------------------------------------------------------------|
B|-------------------------------------------------------------------------|
G|-------------------------------------------------------------------------|
D|---------999-101010-999--------------------------------------------------|
A|----777-------------------888-101010-888---------------------------------|
E|-55----------------------------------------------------------------------|

RIff 1b:
e|-------------------------------------------------------------------------|
B|-------------------------------------------------------------------------|
G|-------------------------------------------------------------------------|
D|7------------------------------7-----------------------------------------|
A|7------------------------------7-----------------------------------------|
E|5------------------------------5-----------------------------------------|

Riff 2a:
e|-------------------------------------------------------------------------|
B|-------------------------------------------------------------------------|
G|------7--------7-----4--5--2---4--5--2-----------------------------------|
D|2-----7---2----7-----4--5--2---4--5--2-----------------------------------|
A|2-----5---2----5-----2--3--0---2--3--0-----------------------------------|
E|0---------0--------------------------------------------------------------|

Riff 2b: clean
e|-------------------------------------------------------------------------|
B|-------------------------------------------------------------------------|
G|---------------7------------------7----------4-------5-------2-----------|
D|----2--------7-----------2------7----------4-------5-------2-------------|
A|--2--------5-----------2------5----------2-------3-------0---------------|
E|0--------------------0---------------------------------------------------|
  /--4x--\  /--4x--\  /--4x--\ /--4x--\  /--4x--\ /--2x--\/--2x--\

e|-------------------------------------------------------------------------|
B|-------------------------------------------------------------------------|
G|----4------5-----2-------------------------------------------------------|
D|--4------5-----2---------------------------------------------------------|
A|2------3-----0-----------------------------------------------------------|
E|-------------------------------------------------------------------------|
  /--4x--\/--2x--\/--2x--\
[ Tab from: http://www.guitartabs.cc/tabs/d/dimmu_borgir/under_korpens_vinger_tab.html ]
Riff 3:
e|-------------------------------------------------------------------------|
B|-------------------------------------------------------------------------|
G|-----9-9-------12-11-------9-9-------7-----5-----------------------------|
D|-----9-9-------12-11-------9-9-----7-----5-------------------------------|
A|-----7-7-------10-9--------7-7---5-----3---------------------------------|
E|0000------8888--------0000-----------------------------------------------|
  xxxx      xxxx        xxxx 

Riff 4: 
e|-------------------------------------------------------------------------|
B|-------------------------------------------------------------------------|
G|-------------------------------------------------------------------------|
D|-------------------------------------------------------------------------|
A|----------77777777--88888888--------10101010-----------------------------|
E|55555555----------------------8888---------------------------------------|

Riff 5:
e|-------------------------------------------------------------------------|
B|-------------------------------------------------------------------------|
G|------------------7------------------------------------------------------|
D|2----9----2----9--7--7---------------------------------------------------|
A|2----9----2----9--5--7---------------------------------------------------|
E|0----7----0----7-----5---------------------------------------------------|

Riff 6:
e|-------------------------------------------------------------------------|
B|-------------------------------------------------------------------------|
G|-------------10.--9.--10.---------------9-9-----9-9----------------------|
D|-7.--9.--10.--------------7.--9.--10.---9-9-----9-9----------------------|
A|----------------------------------------7-7-----7-7----------------------|
E|--------------------------------------00------00-------------------------|

Riff 7:
e|-------------------------------------------------------------------------|
B|-------------------------------------------------------------------------|
G|-------------------------------------------------------------------------|
D|2--2-2-2---9-101010101010-9999-------5-----4-----------------------------|
A|2--2-2-2---9-101010101010-9999-----5-----4-------------------------------|
E|0--0-0-0---7-8-8-8-8-8-8--7777---3-----2---------------------------------|

End:
e|-------------------------------------------------------------------------|
B|-------------------------------------------------------------------------|
G|-------------------------------------------------------------------------|
D|2------------------------------------------------------------------------|
A|2------------------------------------------------------------------------|
E|0------------------------------------------------------------------------|
    
Song structure:

Riff 1a, 
Riff 1a, Riff 1b
Riff 1a
Riff 2a, Riff 2b
Riff 3,
Riff 4,
Riff 5,
Riff 6,
Riff 4,
Riff 5,
Riff 6,
Riff 7,
Riff 2a, Riff 2b
Riff 3, 
End
============================================================================
Comments