Dimmu Borgir - Tormentor Of Christian Souls Chords & Tabs

 

Tormentor Of Christian Souls Chords & Tabs

Dimmu Borgir Chords & Tabs

Version: 1 Type: Tab 0 ratings
1 star 2 stars 3 stars 4 stars 5 stars
comments

Tormentor Of Christian Souls Tab

   
Artist:Dimmu Borgir
Song:Tormentor of Christian Souls
Album:Enthrone Darkness Triumphant

1.This Is my first Dimmu Borgir tab , so be nice. I think It's pretty much
right though,except for some of the middle , that's kinda fucked.help needed.
And what better a first song to tab then the Tormentor of
Christian souls.Anyways bitching Is always welcome so mail me.

Key:
()=artificial harmonics
p=pull off
h=hammeron
/=slide
.=rapid picking
pm=palm mute

Riff 1x a bunch         Riff 2a                      2b
--------------------    ---------------------------/------------------/
--------------------    ---------------------------/------------------/
--------------------    ---------------------------/------------------/
-6-6--10-9--8--7----    ---------------------------/------------------/
-4-4--8--7--6--5----    --5..--7..--8..--7..--5...-/--1..--3..--4..---/
2c
----------------
----------------
----------------
----------------
----------------
-1..--4..--3..--
(a+b)+(a+c)2
Riff 3 x1 (Satan!!!)
-----------------------------------------
-----------------------------------------
-----------------------------------------
-----4/5-4------7\5--4/5-4--4/5-4--5--5--
-----2/3-2------5\3--2/3-2--2/3-2--3--3--
-0-0--------0-0--------------------------
 pm.        pm.
Riff 4a                4b
--------------------   ------------------
--------------------   ------------------
--------------------   ------------------
-4-------4/5-4-4/5--   -4------4-5/7-5/7-
-2222222-2/3-2-2/3--   -222222-2-3/5-3/5-
--------------------   ------------------
  pm....                 pm...
((a*3)+b)4
Riff 5*2
-----------------------------------------
-----------------------------------------
-----------------------------------------
-----4/5-4------7\5--4/5-4--4/5-4--5--5--
-----2/3-2------5\3--2/3-2--2/3-2--3--3--
-0-0--------0-0--------------------------
 pm.        pm.
-----------------------------------------
-----------------------------------------
-----------------------------------------
-----4/5-4------7\5--4/5-4--4/5-4--7--7--
-----2/3-2------5\3--2/3-2--2/3-2--5--5--
-0-0--------0-0--------------------------
 pm.        pm.
[ Tab from: http://www.guitartabs.cc/tabs/d/dimmu_borgir/tormentor_of_christian_souls_tab.html ]
Riff 6*5
--------------------------------------------------------------------
--------------------------------------------------------------------
--------------------------------------------------------------------
--------------------------------------------------------------------
--------------------------------------------------------------------                       
-0000000--777777--666666-------0000000---777777--66666---1010101010-
pm..................................................................

Riff 7*2
-----------------------
-----------------------
-----------------------
----4--3------4--3--7--
-2--2--1---2--2--1--5--
-0---------0-----------
Riff 8*4
-----------------------------------------------
-----------------------------------------------
-----------------------------------------------
----------------------------------6-6-6-6-6-6--
----------------------------------4-4-4-4-4-4--
-2-0-0-2-3-2-3-2--2-0-0-2-3-2-3-2--------------
pm...............................
Riff 9x2
--------------------------------
--------------------------------
--------------------------------
--------------------------------
-------------/7-------------/7--
--2000000000-----2000000000-----
  pm........     pm........
Riff 10x2
----------------------------------
----------------------------------
----------------------------------
----------------------------------
-------------(7)-------------(7)--
--2000000000-----2000000000-------
Riff 11x4
-----------------------------------------------------------------
-----------------------------------------------------------------
-----------------------------------------------------------------
---------------3-----------------------3--------6-6-6-6-6-6-6-6--
--------3-5-6-----6-5-----------3-5-6-----6-5---4-4-4-4-4-4-4-4--
--3--6--------------------3--6-----------------------------------
Riff 12x6?

----------------------------------------------------
----------------------------------------------------
----------------8-------------------------8---------
--------7-9-10-----10-9-----------7-9-10-----10-----
--0--8----------------------0--8--------------------
----------------------------------------------------
  pm..                      pm..
Riff 13x4
-------------------------------------------------
-------------------------------------------------
-------------------------------------------------
---------------------------------6-6-6-6-6-6-6---
---------------------------------4-4-4-4-4-4-4---
--200000002-3232--200000002-3232-----------------
pm..............................

And that's about, It just listem to the song for the number of times to
play some of these , In other words , fuck around.
Comments