Dimmu Borgir - Tormentor Of Christian Souls Chords & Tabs

 

Tormentor Of Christian Souls Chords & Tabs

Dimmu Borgir Chords & Tabs

Version: 1 Type: Bass Tab 0 ratings
1 star 2 stars 3 stars 4 stars 5 stars
comments

Tormentor Of Christian Souls Bass Tab

5 string

G||----------------|--------------------|--------------------|
D||----------------|--------------------|--------------------|
A||----------------|--------------------|--------------------|
E||-----------3----|--2--2--2--2--2--2--|--2--2--2--2--2--2--|
B||--3-------------|--------------------|--------------------|


                                                               
--------------------|--------------------|--------------------|
--------------------|--------------------|--------------------|
--------------------|--------------------|--------------------|
--1--1--1--1--1--1--|--------------------|--------------3--3--|
--------------------|--3--3--3--3--3--3--|--3--3--3--3--------|


                                                               
--------------------|--------------------|--------------------|
--------------------|--------------------|--------------------|
--------------------|--------------------|--------------------|
--2--2--2--2--2--2--|--2--2--2--2--2--2--|--1--1--1--1--1--1--|
--------------------|--------------------|--------------------|


                                                               
--------------------|--------------------|--------------------|
--------------------|--------------------|--------------------|
--------------------|--------------------|--------------------|
--------------------|--------------3--3--|--2--2--2--2--2--2--|
--3--3--3--3--3--3--|--3--3--3--3--------|--------------------|


                                                               
--------------------|--------------------|--------------------|
--------------------|--------------------|--------------------|
--------------------|--------------------|--------------------|
--2--2--2--2--2--2--|--1--1--1--1--1--1--|--------------------|
--------------------|--------------------|--3--3--3--3--3--3--|


                                                               
--------------------|--------------------|--------------------|
--------------------|--------------------|--------------------|
--------------------|--------------------|--------------------|
--------------3--3--|--2--2--2--2--2--2--|--2--2--2--2--2--2--|
--3--3--3--3--------|--------------------|--------------------|


                                                               
--------------------|--------------------|--------------------|
--------------------|--------------------|--------------------|
--------------------|--------------------|--------------------|
--1--1--1--1--1--1--|--------------------|--------------3--3--|
--------------------|--3--3--3--3--3--3--|--3--3--3--3--------|


                                                               
--------------------|--------------------|--------------------|
--------------------|--------------------|--------------------|
--------------------|--------------------|--------------------|
--2--2--2--2--2--2--|--2--2--2--2--2--2--|--1--1--1--1--1--1--|
--------------------|--------------------|--------------------|


                                                               
--------------------|--------------------|--------------------|
--------------------|--------------------|--------------------|
--------------------|--------------------|--------------------|
--------------------|--------------3--3--|--2--2--2--2--2--2--|
--3--3--3--3--3--3--|--3--3--3--3--------|--------------------|


                                                               
--------------------|--------------------|--------------------|
--------------------|--------------------|--------------------|
--------------------|--------------------|--------------------|
--2--2--2--2--2--2--|--1--1--1--1--1--1--|--------------------|
--------------------|--------------------|--3--3--3--3--3--3--|


                                                               
--------------------|--------------------|--------------------|
--------------------|--------------------|--------------------|
--------------------|--------------------|--------------------|
--5--5--5--5--7--7--|--8--8--7--7--5--5--|--1--1--1--1--5--5--|
--------------------|--------------------|--------------------|


                                                               
--------------------|--------------------|--------------------|
--------------------|--------------------|--------------------|
--------------------|--------------------|--------------------|
--3--3--3--3--0--0--|--5--5--5--5--7--7--|--8--8--7--7--5--5--|
--------------------|--------------------|--------------------|


                                                               
--------------------|--------------------|--------------------|
--------------------|--------------------|--------------------|
--------------------|--------------------|--------------------|
--1--1--1--1--5--5--|--3--3--3--3--0--0--|--5--5--5--5--7--7--|
--------------------|--------------------|--------------------|


                                                               
--------------------|--------------------|--------------------|
--------------------|--------------------|--------------------|
--------------------|--------------------|--------------------|
--8--8--7--7--5--5--|--1--1--1--1--5--5--|--3--3--3--3--0--0--|
--------------------|--------------------|--------------------|


                                                               
--------------------|--------------------|--------------------|
--------------------|--------------------|--------------------|
--------------------|--------------------|--------------------|
--5--5--5--5--7--7--|--8--8--7--7--5--5--|--1--1--1--1--5--5--|
--------------------|--------------------|--------------------|


                                                                                
--------------------|----------------|--------------------|--------------------|
--------------------|----------------|--------------------|--------------------|
--------------------|----------------|--------------------|--------------------|
--3--3--3--3--0--0--|-----------3----|--2--2--2--2--2--2--|--2--2--2--2--2--2--|
--------------------|--3-------------|--------------------|--------------------|


                                                               
--------------------|--------------------|--------------------|
--------------------|--------------------|--------------------|
--------------------|--------------------|--------------------|
--1--1--1--1--1--1--|--------------------|--------------3--3--|
--------------------|--3--3--3--3--3--3--|--3--3--3--3--------|


                                                               
--------------------|--------------------|--------------------|
--------------------|--------------------|--------------------|
--------------------|--------------------|--------------------|
--2--2--2--2--2--2--|--2--2--2--2--2--2--|--1--1--1--1--1--1--|
--------------------|--------------------|--------------------|


                                                               
--------------------|--------------------|--------------------|
--------------------|--------------------|--------------------|
--------------------|--------------------|--------------------|
--------------------|--------------3--3--|--2--2--2--2--2--2--|
--3--3--3--3--3--3--|--3--3--3--3--------|--------------------|


                                                               
--------------------|--------------------|--------------------|
--------------------|--------------------|--------------------|
--------------------|--------------------|--------------------|
--2--2--2--2--2--2--|--1--1--1--1--1--1--|--------------------|
--------------------|--------------------|--3--3--3--3--3--3--|


                                                               
--------------------|--------------------|--------------------|
--------------------|--------------------|--------------------|
--------------------|--------------------|--------------------|
--------------3--3--|--2--2--2--2--2--2--|--2--2--2--2--2--2--|
--3--3--3--3--------|--------------------|--------------------|


                                                                                
--------------------|--------------------|------------------|------------------|
--------------------|--------------------|------------------|------------------|
--------------------|--------------------|------------------|------------------|
--1--1--1--1--1--1--|--------------------|------------------|------------------|
--------------------|--3--3--3--3--3--3--|------------------|------------------|


                                                                         
----------------|---------------------------|---------------------------|
----------------|---------------------------|---------------------------|
----------------|---------------------------|---------------------------|
------6----6----|--5--5-5-5--5--6/-5--3/-5--|--5--5-5-5--5--6/-5--3/-5--|
----------------|---------------------------|---------------------------|


                                                        
---------------------------|---------------------------|
---------------------------|---------------------------|
---------------------------|---------------------------|
--5--5-5-5--5--6/-5--3/-5--|--5--5-5-5--5--6--6--6--9--|
---------------------------|---------------------------|


                                                        
---------------------------|---------------------------|
---------------------------|---------------------------|
---------------------------|---------------------------|
--5--5-5-5--5--6/-5--3/-5--|--5--5-5-5--5--6/-5--2/-5--|
---------------------------|---------------------------|


                                                        
---------------------------|---------------------------|
---------------------------|---------------------------|
---------------------------|---------------------------|
--5--5-5-5--5--6/-5--3/-5--|--5--5-5-5--5--6--6--6--9--|
---------------------------|---------------------------|


                                                        
---------------------------|---------------------------|
---------------------------|---------------------------|
---------------------------|---------------------------|
--5--5-5-5--5--6/-5--3/-5--|--5--5-5-5--5--6/-5--3/-5--|
---------------------------|---------------------------|


                                                        
---------------------------|---------------------------|
---------------------------|---------------------------|
---------------------------|---------------------------|
--5--5-5-5--5--6/-5--3/-5--|--5--5-5-5--5--6--6--6--9--|
---------------------------|---------------------------|


                                                        
---------------------------|---------------------------|
---------------------------|---------------------------|
---------------------------|---------------------------|
--5--5-5-5--5--6/-5--3/-5--|--5--5-5-5--5--6/-5--2/-5--|
---------------------------|---------------------------|


                                                        
---------------------------|---------------------------|
---------------------------|---------------------------|
---------------------------|---------------------------|
--5--5-5-5--5--6/-5--3/-5--|--5--5-5-5--5--6--6--6--9--|
---------------------------|---------------------------|


                                                                      
-------------------------|-------------------------|-----------------|
-------------------------|-------------------------|-----------------|
-------------------------|-------------------------|-----------------|
--5--5--5--6--5----5--5--|--8--6--5--6--5----5--6--|--5----6----6----|
-------------------------|-------------------------|-----------------|


                                                                      
-------------------------|-------------------------|-----------------|
-------------------------|-------------------------|-----------------|
-------------------------|-------------------------|-------6----6----|
--5--5--5--6--5----5--5--|--8--6--5--6--5----5--6--|--5--------------|
-------------------------|-------------------------|-----------------|


                                                                      
-------------------------|-------------------------|-----------------|
-------------------------|-------------------------|-----------------|
-------------------------|-------------------------|-----------------|
--5--5--5--6--5----5--5--|--8--6--5--6--5----5--6--|--5----6----6----|
-------------------------|-------------------------|-----------------|


                                                                      
-------------------------|-------------------------|-----------------|
-------------------------|-------------------------|-----------------|
-------------------------|-------------------------|-------6----6----|
--5--5--5--6--5----5--5--|--8--6--5--6--5----5--6--|--5--------------|
-------------------------|-------------------------|-----------------|


                                                        
---------------------------|---------------------------|
---------------------------|---------------------------|
---------------------------|---------------------------|
--5--5-5-5--5--6/-5--3/-5--|--5--5-5-5--5--6/-5--3/-5--|
---------------------------|---------------------------|


                                                        
---------------------------|---------------------------|
---------------------------|---------------------------|
---------------------------|---------------------------|
--5--5-5-5--5--6/-5--3/-5--|--5--5-5-5--5--6--6--6--9--|
---------------------------|---------------------------|


                                                        
---------------------------|---------------------------|
---------------------------|---------------------------|
---------------------------|---------------------------|
--5--5-5-5--5--6/-5--3/-5--|--5--5-5-5--5--6/-5--2/-5--|
---------------------------|---------------------------|


                                                        
---------------------------|---------------------------|
---------------------------|---------------------------|
---------------------------|---------------------------|
--5--5-5-5--5--6/-5--3/-5--|--5--5-5-5--5--6--6--6--9--|
---------------------------|---------------------------|


                                                        
---------------------------|---------------------------|
---------------------------|---------------------------|
---------------------------|---------------------------|
--5--5-5-5--5--6/-5--3/-5--|--5--5-5-5--5--6/-5--3/-5--|
---------------------------|---------------------------|


                                                        
---------------------------|---------------------------|
---------------------------|---------------------------|
---------------------------|---------------------------|
--5--5-5-5--5--6/-5--3/-5--|--5--5-5-5--5--6--6--6--9--|
---------------------------|---------------------------|


                                                        
---------------------------|---------------------------|
---------------------------|---------------------------|
---------------------------|---------------------------|
--5--5-5-5--5--6/-5--3/-5--|--5--5-5-5--5--6/-5--2/-5--|
---------------------------|---------------------------|


                                                        
---------------------------|---------------------------|
---------------------------|---------------------------|
---------------------------|---------------------------|
--5--5-5-5--5--6/-5--3/-5--|--5--5-5-5--5--6--6--6--9--|
---------------------------|---------------------------|


                                                                      
-------------------------|-------------------------|-----------------|
-------------------------|-------------------------|-----------------|
-------------------------|-------------------------|-----------------|
--5--5--5--6--5----5--5--|--8--6--5--6--5----5--6--|--5----6----6----|
-------------------------|-------------------------|-----------------|


                                                                      
-------------------------|-------------------------|-----------------|
-------------------------|-------------------------|-----------------|
-------------------------|-------------------------|-------6----6----|
--5--5--5--6--5----5--5--|--8--6--5--6--5----5--6--|--5--------------|
-------------------------|-------------------------|-----------------|


                                                                      
-------------------------|-------------------------|-----------------|
-------------------------|-------------------------|-----------------|
-------------------------|-------------------------|-----------------|
--5--5--5--6--5----5--5--|--8--6--5--6--5----5--6--|--5----6----6----|
-------------------------|-------------------------|-----------------|


                                                                      
-------------------------|-------------------------|-----------------|
-------------------------|-------------------------|-----------------|
-------------------------|-------------------------|-------6----6----|
--5--5--5--6--5----5--5--|--8--6--5--6--5----5--6--|--5--------------|
-------------------------|-------------------------|-----------------|


                                                                           
--------------|--------------|--------------|--------------|--------------|
--------------|--------------|--------------|--------------|--------------|
--------------|--------------|--------------|--------------|--------------|
--------------|--------------|--------------|--------------|--------------|
--------------|--------------|--------------|--------------|--------------|


                                                                           
--------------|--------------|--------------|-----------------------------|
--------------|--------------|--------------|-----------------------------|
--------------|--------------|--------------|-----------------------------|
--------------|--------------|--------------|--5--5--5--5--5--5--5--5--5--|
--------------|--------------|--------------|-----------------------------|


                                                            
-----------------------------|-----------------------------|
-----------------------------|-----------------------------|
--7--7--7--7--7--7--7--7--7--|--6--6--6--6--6--6--6--6--6--|
-----------------------------|-----------------------------|
-----------------------------|-----------------------------|


                                                            
-----------------------------|-----------------------------|
-----------------------------|-----------------------------|
--6--6--6--6--6--6--6--6--6--|-----------------------------|
-----------------------------|--5--5--5--5--5--5--5--5--5--|
-----------------------------|-----------------------------|


                                                            
-----------------------------|-----------------------------|
-----------------------------|-----------------------------|
--7--7--7--7--7--7--7--7--7--|--6--6--6--6--6--6--6--6--6--|
-----------------------------|-----------------------------|
-----------------------------|-----------------------------|


                                                            
-----------------------------|-----------------------------|
-----------------------------|-----------------------------|
-----------------------------|-----------------------------|
--3--3--3--3--3--3--3--3--3--|--5--5--5--5--5--5--5--5--5--|
-----------------------------|-----------------------------|


                                                            
-----------------------------|-----------------------------|
-----------------------------|-----------------------------|
--7--7--7--7--7--7--7--7--7--|--6--6--6--6--6--6--6--6--6--|
-----------------------------|-----------------------------|
-----------------------------|-----------------------------|


                                                            
-----------------------------|-----------------------------|
-----------------------------|-----------------------------|
--6--6--6--6--6--6--6--6--6--|-----------------------------|
-----------------------------|--5--5--5--5--5--5--5--5--5--|
-----------------------------|-----------------------------|


                                                            
-----------------------------|-----------------------------|
-----------------------------|-----------------------------|
--7--7--7--7--7--7--7--7--7--|--6--6--6--6--6--6--6--6--6--|
-----------------------------|-----------------------------|
-----------------------------|-----------------------------|

[ Tab from: http://www.guitartabs.cc/tabs/d/dimmu_borgir/tormentor_of_christian_souls_btab.html ]
                                                            
-----------------------------|-----------------------------|
-----------------------------|-----------------------------|
-----------------------------|-----------------------------|
--3--3--3--3--3--3--3--3--3--|--5--5--5--5--5--5--5--5--5--|
-----------------------------|-----------------------------|


                                                            
-----------------------------|-----------------------------|
-----------------------------|-----------------------------|
--7--7--7--7--7--7--7--7--7--|--6--6--6--6--6--6--6--6--6--|
-----------------------------|-----------------------------|
-----------------------------|-----------------------------|


                                                            
-----------------------------|-----------------------------|
-----------------------------|-----------------------------|
--6--6--6--6--6--6--6--6--6--|-----------------------------|
-----------------------------|--5--5--5--5--5--5--5--5--5--|
-----------------------------|-----------------------------|


                                                            
-----------------------------|-----------------------------|
-----------------------------|-----------------------------|
--7--7--7--7--7--7--7--7--7--|--6--6--6--6--6--6--6--6--6--|
-----------------------------|-----------------------------|
-----------------------------|-----------------------------|


                                                            
-----------------------------|-----------------------------|
-----------------------------|-----------------------------|
-----------------------------|-----------------------------|
--3--3--3--3--3--3--3--3--3--|--5--5--5--5--5--5--5--5--5--|
-----------------------------|-----------------------------|


                                                            
-----------------------------|-----------------------------|
-----------------------------|-----------------------------|
--7--7--7--7--7--7--7--7--7--|--6--6--6--6--6--6--6--6--6--|
-----------------------------|-----------------------------|
-----------------------------|-----------------------------|


                                                            
-----------------------------|-----------------------------|
-----------------------------|-----------------------------|
--6--6--6--6--6--6--6--6--6--|-----------------------------|
-----------------------------|--5--5--5--5--5--5--5--5--5--|
-----------------------------|-----------------------------|


                                                            
-----------------------------|-----------------------------|
-----------------------------|-----------------------------|
--7--7--7--7--7--7--7--7--7--|--6--6--6--6--6--6--6--6--6--|
-----------------------------|-----------------------------|
-----------------------------|-----------------------------|


                                                                              
-----------------------------|---------------|---------------|---------------|
-----------------------------|---------------|---------------|---------------|
-----------------------------|---------------|--7------------|--6------------|
--3--3--3--3--3--3--3--3--3--|--5------------|---------------|---------------|
-----------------------------|---------------|---------------|---------------|


                                                                               
--------------|---------------|---------------|---------------|---------------|
--------------|---------------|---------------|---------------|---------------|
--------------|---------------|--7------------|--6------------|---------------|
--------------|--5------------|---------------|---------------|--3------------|
--------------|---------------|---------------|---------------|---------------|


                                                                               
---------------|---------------|---------------|--------------|---------------|
---------------|---------------|---------------|--------------|---------------|
---------------|--7------------|--6------------|--------------|---------------|
--5------------|---------------|---------------|--------------|--5------------|
---------------|---------------|---------------|--------------|---------------|


                                                                   
---------------|---------------|---------------|------------------|
---------------|---------------|---------------|------------------|
--7------------|--6------------|---------------|------------------|
---------------|---------------|--3------------|------------------|
---------------|---------------|---------------|------------------|


                                                                         
------------------|--------------------------|--------------------------|
------------------|--------------------------|--------------------------|
------------------|--------------------------|--------------------------|
------------------|--------------------------|--------------------------|
------------------|--4--4--4--4--4--4--4--4--|--4--4--4--4--4--4--4--4--|


                                                        
---------------------------|---------------------------|
---------------------------|---------------------------|
------------3--2--0--2--0--|------------3--2--0--2--0--|
--0--0-0-0-----------------|--0--0-0-0-----------------|
---------------------------|---------------------------|


                                                      
--------------------------|--------------------------|
--------------------------|--------------------------|
--------------------------|--------------------------|
--------------------------|--------------------------|
--4--4--4--4--4--4--4--4--|--4--4--4--4--4--4--4--4--|


                                                        
---------------------------|---------------------------|
---------------------------|---------------------------|
------------3--2--0--2--0--|------------3--2--0--2--0--|
--0--0-0-0-----------------|--0--0-0-0-----------------|
---------------------------|---------------------------|


                                                      
--------------------------|--------------------------|
--------------------------|--------------------------|
--------------------------|--------------------------|
--------------------------|--------------------------|
--4--4--4--4--4--4--4--4--|--4--4--4--4--4--4--4--4--|


                                                        
---------------------------|---------------------------|
---------------------------|---------------------------|
------------3--2--0--2--0--|------------3--2--0--2--0--|
--0--0-0-0-----------------|--0--0-0-0-----------------|
---------------------------|---------------------------|


                                                      
--------------------------|--------------------------|
--------------------------|--------------------------|
--------------------------|--------------------------|
--------------------------|--------------------------|
--4--4--4--4--4--4--4--4--|--4--4--4--4--4--4--4--4--|


                                                        
---------------------------|---------------------------|
---------------------------|---------------------------|
------------3--2--0--2--0--|------------3--2--0--2--0--|
--0--0-0-0-----------------|--0--0-0-0-----------------|
---------------------------|---------------------------|


                                                      
--------------------------|--------------------------|
--------------------------|--------------------------|
--------------------------|--------------------------|
--------------------------|--------------------------|
--4--4--4--4--4--4--4--4--|--4--4--4--4--4--4--4--4--|


                                                        
---------------------------|---------------------------|
---------------------------|---------------------------|
------------3--2--0--2--0--|------------3--2--0--2--0--|
--0--0-0-0-----------------|--0--0-0-0-----------------|
---------------------------|---------------------------|


                                                      
--------------------------|--------------------------|
--------------------------|--------------------------|
--------------------------|--------------------------|
--------------------------|--------------------------|
--4--4--4--4--4--4--4--4--|--4--4--4--4--4--4--4--4--|


                                                        
---------------------------|---------------------------|
---------------------------|---------------------------|
------------3--2--0--2--0--|------------3--2--0--2--0--|
--0--0-0-0-----------------|--0--0-0-0-----------------|
---------------------------|---------------------------|


                                                      
--------------------------|--------------------------|
--------------------------|--------------------------|
--------------------------|--------------------------|
--------------------------|--------------------------|
--4--4--4--4--4--4--4--4--|--4--4--4--4--4--4--4--4--|


                                                          
|----------------------------|---------------------------|
|*---------------------------|---------------------------|
|-------------3--2--0--2--0--|------------3--2--0--2--0--|
|*--0--0-0-0-----------------|--0--0-0-0-----------------|
|----------------------------|---------------------------|


                                                      
--------------------------|--------------------------|
--------------------------|--------------------------|
--------------------------|--------------------------|
--------------------------|--------------------------|
--4--4--4--4--4--4--4--4--|--4--4--4--4--4--4--4--4--|


                                                        
---------------------------|---------------------------|
---------------------------|---------------------------|
------------3--2--0--2--0--|------------3--2--0--2--0--|
--0--0-0-0-----------------|--0--0-0-0-----------------|
---------------------------|---------------------------|


                                                                            
--------------------------|---------------------------||-------------------|
--------------------------|--------------------------*||-------------------|
--------------------------|---------------------------||-------------------|
--------------------------|--------------------------*||--0----------------|
--4--4--4--4--4--4--4--4--|--4--4--4--4--4--4--4--4---||-------------------|


                                                             
-------------------|-------------------|--------------------|
-------------------|-------------------|--------------------|
-------------------|--6----------------|--------------------|
--0----------------|-------------------|----------6----2----|
-------------------|-------------------|--------------------|


                                                             
-------------------|--------------------|-------------------|
-------------------|--------------------|-------------------|
-------------------|--------------------|-------------------|
--0----------------|----------7----6----|-------------------|
-------------------|--------------------|--4----------------|


                                                              
--------------------|-------------------|--------------------|
--------------------|-------------------|--------------------|
--------------------|-------------------|--------------------|
----------6----2----|--0----------------|----------7----6----|
--------------------|-------------------|--------------------|


                                                             
-------------------|--------------------|-------------------|
-------------------|--------------------|-------------------|
-------------------|--------------------|-------------------|
-------------------|----------6----2----|--0----------------|
--4----------------|--------------------|-------------------|


                                                              
--------------------|-------------------|--------------------|
--------------------|-------------------|--------------------|
--------------------|-------------------|--------------------|
----------7----6----|-------------------|----------6----2----|
--------------------|--4----------------|--------------------|


                                                        
---------------------------|---------------------------|
---------------------------|---------------------------|
------------3--2--0--2--0--|------------3--2--0--2--0--|
--0--0-0-0-----------------|--0--0-0-0-----------------|
---------------------------|---------------------------|


                                                      
--------------------------|--------------------------|
--------------------------|--------------------------|
--------------------------|--------------------------|
--------------------------|--------------------------|
--4--4--4--4--4--4--4--4--|--4--4--4--4--4--4--4--4--|


                                                        
---------------------------|---------------------------|
---------------------------|---------------------------|
------------3--2--0--2--0--|------------3--2--0--2--0--|
--0--0-0-0-----------------|--0--0-0-0-----------------|
---------------------------|---------------------------|


                                                      
--------------------------|--------------------------|
--------------------------|--------------------------|
--------------------------|--------------------------|
--------------------------|--------------------------|
--4--4--4--4--4--4--4--4--|--4--4--4--4--4--4--4--4--|


                                                        
---------------------------|---------------------------|
---------------------------|---------------------------|
------------3--2--0--2--0--|------------3--2--0--2--0--|
--0--0-0-0-----------------|--0--0-0-0-----------------|
---------------------------|---------------------------|


                                                      
--------------------------|--------------------------|
--------------------------|--------------------------|
--------------------------|--------------------------|
--------------------------|--------------------------|
--4--4--4--4--4--4--4--4--|--4--4--4--4--4--4--4--4--|


                                                        
---------------------------|---------------------------|
---------------------------|---------------------------|
------------3--2--0--2--0--|------------3--2--0--2--0--|
--0--0-0-0-----------------|--0--0-0-0-----------------|
---------------------------|---------------------------|


                                                                       
--------------------------|--------------------------|----------------|
--------------------------|--------------------------|----------------|
--------------------------|--------------------------|----------------|
--------------------------|--------------------------|-----------3----|
--4--4--4--4--4--4--4--4--|--4--4--4--4--4--4--4--4--|--3-------------|


                                                               
--------------------|--------------------|--------------------|
--------------------|--------------------|--------------------|
--------------------|--------------------|--------------------|
--2--2--2--2--2--2--|--2--2--2--2--2--2--|--1--1--1--1--1--1--|
--------------------|--------------------|--------------------|


                                                               
--------------------|--------------------|--------------------|
--------------------|--------------------|--------------------|
--------------------|--------------------|--------------------|
--------------------|--------------3--3--|--2--2--2--2--2--2--|
--3--3--3--3--3--3--|--3--3--3--3--------|--------------------|


                                                               
--------------------|--------------------|--------------------|
--------------------|--------------------|--------------------|
--------------------|--------------------|--------------------|
--2--2--2--2--2--2--|--1--1--1--1--1--1--|--------------------|
--------------------|--------------------|--3--3--3--3--3--3--|


                                                               
--------------------|--------------------|--------------------|
--------------------|--------------------|--------------------|
--------------------|--------------------|--------------------|
--------------3--3--|--2--2--2--2--2--2--|--2--2--2--2--2--2--|
--3--3--3--3--------|--------------------|--------------------|


                                                               
--------------------|--------------------|--------------------|
--------------------|--------------------|--------------------|
--------------------|--------------------|--------------------|
--1--1--1--1--1--1--|--------------------|--------------3--3--|
--------------------|--3--3--3--3--3--3--|--3--3--3--3--------|


                                                               
--------------------|--------------------|--------------------|
--------------------|--------------------|--------------------|
--------------------|--------------------|--------------------|
--2--2--2--2--2--2--|--2--2--2--2--2--2--|--1--1--1--1--1--1--|
--------------------|--------------------|--------------------|


                                                                         
--------------------|-------------------------|-------------------------|
--------------------|-------------------------|-------------------------|
--------------------|-------------------------|-------------------------|
--------------------|--5--5--5--6--5----5--5--|--8--6--5--6--5----5--6--|
--3--3--3--3--3--3--|-------------------------|-------------------------|


                                                                      
-----------------|-------------------------|-------------------------|
-----------------|-------------------------|-------------------------|
-----------------|-------------------------|-------------------------|
--5----6----6----|--5--5--5--6--5----5--5--|--8--6--5--6--5----5--6--|
-----------------|-------------------------|-------------------------|


                                                                      
-----------------|-------------------------|-------------------------|
-----------------|-------------------------|-------------------------|
-------6----6----|-------------------------|-------------------------|
--5--------------|--5--5--5--6--5----5--5--|--8--6--5--6--5----5--6--|
-----------------|-------------------------|-------------------------|


                                                                      
-----------------|-------------------------|-------------------------|
-----------------|-------------------------|-------------------------|
-----------------|-------------------------|-------------------------|
--5----6----6----|--5--5--5--6--5----5--5--|--8--6--5--6--5----5--6--|
-----------------|-------------------------|-------------------------|


                                                                      
-----------------|-------------------------|-------------------------|
-----------------|-------------------------|-------------------------|
-------6----6----|-------------------------|-------------------------|
--5--------------|--5--5--5--6--5----5--5--|--8--6--5--6--5----5--6--|
-----------------|-------------------------|-------------------------|


                                                                      
-----------------|-------------------------|-------------------------|
-----------------|-------------------------|-------------------------|
-----------------|-------------------------|-------------------------|
--5----6----6----|--5--5--5--6--5----5--5--|--8--6--5--6--5----5--6--|
-----------------|-------------------------|-------------------------|


                                                                      
-----------------|-------------------------|-------------------------|
-----------------|-------------------------|-------------------------|
-------6----6----|-------------------------|-------------------------|
--5--------------|--5--5--5--6--5----5--5--|--8--6--5--6--5----5--6--|
-----------------|-------------------------|-------------------------|


                                                                      
-----------------|-------------------------|-------------------------|
-----------------|-------------------------|-------------------------|
-----------------|-------------------------|-------------------------|
--5----6----6----|--5--5--5--6--5----5--5--|--8--6--5--6--5----5--6--|
-----------------|-------------------------|-------------------------|


                                  
-----------------|--------------||
-----------------|--------------||
-------6----6----|--------------||
--5--------------|--------------||
-----------------|--------------||
Comments