Dimmu Borgir - The Night Masquerade Chords & Tabs

 

The Night Masquerade Chords & Tabs

Dimmu Borgir Chords & Tabs

Version: 1 Type: Bass Tab 0 ratings
1 star 2 stars 3 stars 4 stars 5 stars
comments

The Night Masquerade Bass Tab

TUNE DOWN

G||---------------------|-----------------------||----------------------|
D||---------------------|----------------------*||*---------------------|
A||--7-------------7----|--9------10------9----*||*--7-------------7----|
E||---------7-----------|-----------------------||----------7-----------|


                       3x                                          
-----------------------||--------------------|--------------------|
----------------------*||*-------------------|--------------------|
--9------10------9----*||*--7----------------|-----------7--------|
-----------------------||--------------------|------7-------------|


                                                                
----------------------|-------------------|--------------------|
----------------------|-------------------|--------------------|
------9----10----9----|-------------------|--------------------|
----------------------|--7----------------|------5----7--------|


                                                                      
---------------------------||-------------------|--------------------|
--------------------------*||-------------------|--------------------|
--------------------------*||--7----------------|-----------7--------|
------7--7--9--9--10--10---||-------------------|------7-------------|


                                                                
----------------------|-------------------|--------------------|
----------------------|-------------------|--------------------|
------9----10----9----|-------------------|--------------------|
----------------------|--7----------------|------5----7--------|


                                                                    
--------------------------|-------------------|--------------------|
--------------------------|-------------------|--------------------|
--------------------------|--7----------------|-----------7--------|
------7--7--9--9--10--10--|-------------------|------7-------------|


                                                                
----------------------|-------------------|--------------------|
----------------------|-------------------|--------------------|
------9----10----9----|-------------------|--------------------|
----------------------|--7----------------|------5----7--------|


                                                                      
--------------------------||--------------------|--------------------|
--------------------------||*-------------------|--------------------|
--------------------------||*--7----------------|-----------7--------|
------7--7--9--9--10--10--||--------------------|------7-------------|


                                                                
----------------------|-------------------|--------------------|
----------------------|-------------------|--------------------|
------9----10----9----|-------------------|--------------------|
----------------------|--7----------------|------5----7--------|


                                                                      
---------------------------||-------------------|--------------------|
--------------------------*||-------------------|--------------------|
--------------------------*||--7----------------|-----------7--------|
------7--7--9--9--10--10---||-------------------|------7-------------|


                                                                
----------------------|-------------------|--------------------|
----------------------|-------------------|--------------------|
------9----10----9----|-------------------|--------------------|
----------------------|--7----------------|------5----7--------|


                                                                    
--------------------------|-------------------|--------------------|
--------------------------|-------------------|--------------------|
--------------------------|--7----------------|-----------7--------|
------7--7--9--9--10--10--|-------------------|------7-------------|


                                                                
----------------------|-------------------|--------------------|
----------------------|-------------------|--------------------|
------9----10----9----|-------------------|--------------------|
----------------------|--7----------------|------5----7--------|


                                                                      
--------------------------||--------------------|--------------------|
--------------------------||*-------------------|--------------------|
--------------------------||*--7----------------|-----------7--------|
------7--7--9--9--10--10--||--------------------|------7-------------|


                                                                
----------------------|-------------------|--------------------|
----------------------|-------------------|--------------------|
------9----10----9----|-------------------|--------------------|
----------------------|--7----------------|------5----7--------|


                                                                               
---------------------------||------------------------|------------------------|
--------------------------*||*-----------------------|------------------------|
--------------------------*||*--2----------0----2----|--------0----2----------|
------7--7--9--9--10--10---||--------0--0------------|--0--0------------0--0--|


                       3x                                                  
-----------------------||------------------------|------------------------|
----------------------*||*-----------------------|------------------------|
--0--------------3----*||*--2----------0----2----|--------0----2----------|
-------3----5----------||--------0--0------------|--0--0------------0--0--|


                                                                          
-----------------------||-----------------------|------------------------|
----------------------*||-----------------------|------------------------|
--0--------------3----*||--2----------0----2----|--------0----2----------|
-------3----5----------||-------0--0------------|--0--0------------0--0--|


                                                                        
----------------------|-----------------------|------------------------|
----------------------|-----------------------|------------------------|
--0--------------3----|--2----------0----2----|--------0----2----------|
-------3----5---------|-------0--0------------|--0--0------------0--0--|


                                                                        
----------------------|-----------------------|------------------------|
----------------------|-----------------------|------------------------|
--0--------------3----|--2----------0----2----|--------0----2----------|
-------3----5---------|-------0--0------------|--0--0------------0--0--|


                                                                  
----------------------||--------------------|--------------------|
----------------------||*-------------------|--------------------|
--0--------------3----||*--7----------------|-----------7--------|
-------3----5---------||--------------------|------7-------------|

[ Tab from: http://www.guitartabs.cc/tabs/d/dimmu_borgir/the_night_masquerade_btab.html ]
                                                                
----------------------|-------------------|--------------------|
----------------------|-------------------|--------------------|
------9----10----9----|-------------------|--------------------|
----------------------|--7----------------|------5----7--------|


                                                                      
---------------------------||-------------------|--------------------|
--------------------------*||-------------------|--------------------|
--------------------------*||--7----------------|-----------7--------|
------7--7--9--9--10--10---||-------------------|------7-------------|


                                                                
----------------------|-------------------|--------------------|
----------------------|-------------------|--------------------|
------9----10----9----|-------------------|--------------------|
----------------------|--7----------------|------5----7--------|


                                                                    
--------------------------|-------------------|--------------------|
--------------------------|-------------------|--------------------|
--------------------------|--7----------------|-----------7--------|
------7--7--9--9--10--10--|-------------------|------7-------------|


                                                                
----------------------|-------------------|--------------------|
----------------------|-------------------|--------------------|
------9----10----9----|-------------------|--------------------|
----------------------|--7----------------|------5----7--------|


                                                                              
--------------------------||------------------------|------------------------|
--------------------------||*-----------------------|------------------------|
--------------------------||*--2----------0----2----|--------0----2----------|
------7--7--9--9--10--10--||--------0--0------------|--0--0------------0--0--|


                       3x                                                 
-----------------------||-----------------------|------------------------|
----------------------*||-----------------------|------------------------|
--0--------------3----*||--2----------0----2----|--------0----2----------|
-------3----5----------||-------0--0------------|--0--0------------0--0--|


                                                                        
----------------------|-----------------------|------------------------|
----------------------|-----------------------|------------------------|
--0--------------3----|--2----------0----2----|--------0----2----------|
-------3----5---------|-------0--0------------|--0--0------------0--0--|


                                                                          
----------------------||------------------------|------------------------|
----------------------||*-----------------------|------------------------|
--0--------------3----||*--2----------0----2----|--------0----2----------|
-------3----5---------||--------0--0------------|--0--0------------0--0--|


                                                                 
-----------------------||-------------------|-------------------|
----------------------*||-------------------|-------------------|
--0--------------3----*||--2----------------|--0----------------|
-------3----5----------||-------------------|-------------------|


                                                                           
-------------------|-------------------|----------------------------------|
-------------------|-------------------|--4-4-4-4-4-4-4-4-4-4-4-4-4-4-4-4-|
--0----------------|-------------------|----------------------------------|
-------------------|--3----------------|----------------------------------|


                                                                      
----------------------------------|----------------------------------|
--4-4-4-4-4-4-4-4-4-4-4-4-4-4-4-4-|--2-2-2-2-2-2-2-2-2-2-2-2-2-2-2-2-|
----------------------------------|----------------------------------|
----------------------------------|----------------------------------|


                                                                      
----------------------------------|----------------------------------|
--0-0-0-0-0-0-0-0-2-2-2-2-2-2-2-2-|--4-4-4-4-4-4-4-4-4-4-4-4-4-4-4-4-|
----------------------------------|----------------------------------|
----------------------------------|----------------------------------|


                                                                      
----------------------------------|----------------------------------|
--4-4-4-4-4-4-4-4-4-4-4-4-4-4-4-4-|--2-2-2-2-2-2-2-2-2-2-2-2-2-2-2-2-|
----------------------------------|----------------------------------|
----------------------------------|----------------------------------|


                                                                        
----------------------------------||-----------------------------------|
--0-0-0-0-0-0-0-0-2-2-2-2-2-2-2-2-||*--4-4-4-4-4-4-4-4-4-4-4-4-4-4-4-4-|
----------------------------------||*----------------------------------|
----------------------------------||-----------------------------------|


                                                                      
----------------------------------|----------------------------------|
--4-4-4-4-4-4-4-4-4-4-4-4-4-4-4-4-|--2-2-2-2-2-2-2-2-2-2-2-2-2-2-2-2-|
----------------------------------|----------------------------------|
----------------------------------|----------------------------------|


                                   2x                       
-----------------------------------||----------------------|
--0-0-0-0-0-0-0-0-2-2-2-2-2-2-2-2-*||*---------------------|
----------------------------------*||*--7-------------7----|
-----------------------------------||----------7-----------|


                       3x                                              2x
-----------------------||----------------------|-----------------------||
----------------------*||*---------------------|----------------------*||
--9------10------9----*||*--7-------------7----|--9------10------9----*||
-----------------------||----------7-----------|-----------------------||


                                             
---------------------|----------------------|
---------------------|----------------------|
--7-------------7----|--9------10------9----|
---------7-----------|----------------------|


                                                                        
|-----------------------------------|----------------------------------|
|*--4-4-4-4-4-4-4-4-4-4-4-4-4-4-4-4-|--4-4-4-4-4-4-4-4-4-4-4-4-4-4-4-4-|
|*----------------------------------|----------------------------------|
|-----------------------------------|----------------------------------|


                                                                      3x
----------------------------------|-----------------------------------||
--2-2-2-2-2-2-2-2-2-2-2-2-2-2-2-2-|--0-0-0-0-0-0-0-0-2-2-2-2-2-2-2-2-*||
----------------------------------|----------------------------------*||
----------------------------------|-----------------------------------||
Comments