Dimmu Borgir - The Insight And The Catharsis Chords & Tabs

 

The Insight And The Catharsis Chords & Tabs

Dimmu Borgir Chords & Tabs

Version: 1 Type: Bass Tab 0 ratings
1 star 2 stars 3 stars 4 stars 5 stars
comments

The Insight And The Catharsis Bass Tab

G||--------------------|--------------------|--------------------|
D||--------------------|--------------------|--------------------|
A||--------------------|--------------------|--------------------|
E||--5--------4--------|--5--------4--------|--5--------4--------|
B||--------------------|--------------------|--------------------|


                                                                
---------------------|--------------------|--------------------|
---------------------|--------------------|--------------------|
---------------------|--------------------|--------------------|
--5--------4----4/---|--1--------0--------|--1--------0--------|
---------------------|--------------------|--------------------|


                                                               
--------------------|--------------------|--------------------|
--------------------|--------------------|--------------------|
--------------------|--------------------|--------------------|
--1--------0--------|--1--------0--------|--5--------4--------|
--------------------|--------------------|--------------------|


                                                               
--------------------|--------------------|--------------------|
--------------------|--------------------|--------------------|
--------------------|--------------------|--------------------|
--5--------4--------|--5--------4--------|--5--------4--------|
--------------------|--------------------|--------------------|


                                                               
--------------------|--------------------|--------------------|
--------------------|--------------------|--------------------|
--------------------|--------------------|--------------------|
--1--------0--------|--1--------0--------|--1--------0--------|
--------------------|--------------------|--------------------|


                                                               
--------------------|--------------------|--------------------|
--------------------|--------------------|--------------------|
--------------------|--------------------|--------------------|
--1--------0--------|--5--------1--------|--5--------1--------|
--------------------|--------------------|--------------------|


                                                               
--------------------|--------------------|--------------------|
--------------------|--------------------|--------------------|
--------------------|--------------------|--------------------|
--5--------1--------|--5--------1--------|-----------4--------|
--------------------|--------------------|--3-----------------|


                                                               
--------------------|--------------------|--------------------|
--------------------|--------------------|--------------------|
--------------------|--------------------|--------------------|
-----------4--------|-----------4--------|-----------4--------|
--3-----------------|--3-----------------|--3-----------------|


                                                        
--------------------|----------------------------------|
--------------------|----------------------------------|
--------------------|----------------------------------|
--2------------5/---|--1-1-1-1-1-1-1-1-1-1-1-1-1-1-1-1-|
--------------------|----------------------------------|


                                                                      
----------------------------------|----------------------------------|
----------------------------------|----------------------------------|
----------------------------------|----------------------------------|
--2-2-2-2-2-2-2-2-2-2-2-2-2-2-2-2-|--3-3-3-3-3-3-3-3-3-3-3-3-3-3-3-3-|
----------------------------------|----------------------------------|


                                                                      
----------------------------------|----------------------------------|
----------------------------------|----------------------------------|
----------------------------------|----------------------------------|
--2-2-2-2-2-2-2-2-2-2-2-2-2-2-2-2-|--1-1-1-1-1-1-1-1-1-1-1-1-1-1-1-1-|
----------------------------------|----------------------------------|


                                                                      
----------------------------------|----------------------------------|
----------------------------------|----------------------------------|
----------------------------------|----------------------------------|
--2-2-2-2-2-2-2-2-2-2-2-2-2-2-2-2-|--3-3-3-3-3-3-3-3-3-3-3-3-3-3-3-3-|
----------------------------------|----------------------------------|


                                                                          
|--------------------------------|---------------------------------------|
|*-------------------------------|---------------------------------------|
|--------------------------------|---------------------------------------|
|*--2--2-2-2-2-2-2-5---4---4-5-4-|--1--1-1-1-1-1-1-1-1-1-1-1-1-1-1-1-1-1-|
|--------------------------------|---------------------------------------|


                                                                          
-------------------------------|--------------------||-------------------|
-------------------------------|-------------------*||-------------------|
-------------------------------|--------------------||-------------------|
--2--2-2-2-2-2-2-5---4---4-5-4-|--3----------------*||--3----------------|
-------------------------------|--------------------||-------------------|


                                                                  
-------------------|-------------------------|-------------------|
-------------------|-------------------------|-------------------|
--3----------------|----------3----5----6----|-------------------|
-------------------|-------------------------|--4----------------|
-------------------|-------------------------|-------------------|


                                                                 
------------------|-------------------|-------------------------|
------------------|-------------------|-------------------------|
------------------|--3----------------|----------3----5----6----|
------------------|-------------------|-------------------------|
------------------|-------------------|-------------------------|


                                                                       
-------------------|------------------|-------------------------------|
-------------------|------------------|-------------------------------|
-------------------|------------------|-------------------------------|
--4----------------|------------------|--0--------0----0----0----0----|
-------------------|------------------|-------------------------------|


                                                                
-------------------------------|-------------------------------|
-------------------------------|-------------------------------|
-------------------------------|-------------------------------|
--0--------0----0----0----0----|--4--------4----4----4----4----|
-------------------------------|-------------------------------|


                                                                
-------------------------------|-------------------------------|
-------------------------------|-------------------------------|
-------------------------------|-------------------------------|
--4--------4----4----4----4----|--0--------0----0----0----0----|
-------------------------------|-------------------------------|


                                                                
-------------------------------|-------------------------------|
-------------------------------|-------------------------------|
-------------------------------|-------------------------------|
--0--------0----0----0----0----|--4--------4----4----4----4----|
-------------------------------|-------------------------------|


                                                                              
-------------------------------|-------------------|-------------------------|
-------------------------------|-------------------|-------------------------|
-------------------------------|--3----------------|----------3----5----6----|
--4--------4----4----4----4----|-------------------|-------------------------|
-------------------------------|-------------------|-------------------------|


                                                           
-------------------|------------------|-------------------|
-------------------|------------------|-------------------|
-------------------|------------------|--3----------------|
--4----------------|------------------|-------------------|
-------------------|------------------|-------------------|


                                                                 
-------------------------|-------------------|------------------|
-------------------------|-------------------|------------------|
----------3----5----6----|-------------------|------------------|
-------------------------|--4----------------|------------------|
-------------------------|-------------------|------------------|


                                                                
-------------------------------|-------------------------------|
-------------------------------|-------------------------------|
-------------------------------|-------------------------------|
--0--------0----0----0----0----|--0--------0----0----0----0----|
-------------------------------|-------------------------------|


                                                                
-------------------------------|-------------------------------|
-------------------------------|-------------------------------|
-------------------------------|-------------------------------|
--4--------4----4----4----4----|--4--------4----4----4----4----|
-------------------------------|-------------------------------|


                                                                
-------------------------------|-------------------------------|
-------------------------------|-------------------------------|
-------------------------------|-------------------------------|
--0--------0----0----0----0----|--0--------0----0----0----0----|
-------------------------------|-------------------------------|


                                                                    
-------------------------------|-----------------------------------|
-------------------------------|-----------------------------------|
-------------------------------|-----------------------------------|
--4--------4----4----4----4----|--7----7----7----11----11----11----|
-------------------------------|-----------------------------------|


                                                                  
--------------------------------|--------------------------------|
--------------------------------|--------------------------------|
--------------------------------|--------------------------------|
--0----0----0----1----1----1----|--0----0----0----1----1----1----|
--------------------------------|--------------------------------|


                                                            
--------------------------------|--------------------------|
--------------------------------|--------------------------|
--------------------------------|--------------------------|
--0----0----0----1----1----1----|-----------------3--------|
--------------------------------|--4----4----4-------------|


                                                                  
--------------------------------|--------------------------------|
--------------------------------|--------------------------------|
--------------------------------|--------------------------------|
--0----0----0----1----1----1----|--0----0----0----1----1----1----|
--------------------------------|--------------------------------|


                                                            
--------------------------------|--------------------------|
--------------------------------|--------------------------|
--------------------------------|--------------------------|
--0----0----0----1----1----1----|-----------------3--------|
--------------------------------|--4----4----4-------------|


                                                                      
----------------------------------|----------------------------------|
----------------------------------|----------------------------------|
----------------------------------|----------------------------------|
--0----0----0----1----1--1--1--1--|--0----0----0----1----1--1--1--1--|
----------------------------------|----------------------------------|


                                                              
----------------------------------|--------------------------|
----------------------------------|--------------------------|
----------------------------------|--------------------------|
--0----0----0----1----1--1--1--1--|-----------------3--------|
----------------------------------|--4----4----4-------------|


                                                                      
----------------------------------|----------------------------------|
----------------------------------|----------------------------------|
----------------------------------|----------------------------------|
--0----0----0----1----1--1--1--1--|--0----0----0----1----1--1--1--1--|
----------------------------------|----------------------------------|


                                                              
----------------------------------|--------------------------|
----------------------------------|--------------------------|
----------------------------------|--------------------------|
--0----0----0----1----1--1--1--1--|-----------------3--------|
----------------------------------|--4----4----4-------------|


                                                                  
-------------------|-------------------------|-------------------|
-------------------|-------------------------|-------------------|
--3----------------|----------3----5----6----|-------------------|
-------------------|-------------------------|--4----------------|
-------------------|-------------------------|-------------------|


                                                                 
------------------|-------------------|-------------------------|
------------------|-------------------|-------------------------|
------------------|--3----------------|----------3----5----6----|
------------------|-------------------|-------------------------|
------------------|-------------------|-------------------------|


                                                                       
-------------------|------------------|-------------------------------|
-------------------|------------------|-------------------------------|
-------------------|------------------|-------------------------------|
--4----------------|------------------|--0--------0----0----0----0----|
-------------------|------------------|-------------------------------|


                                                                
-------------------------------|-------------------------------|
-------------------------------|-------------------------------|
-------------------------------|-------------------------------|
--0--------0----0----0----0----|--4--------4----4----4----4----|
-------------------------------|-------------------------------|


                                                                
-------------------------------|-------------------------------|
-------------------------------|-------------------------------|
-------------------------------|-------------------------------|
--4--------4----4----4----4----|--0--------0----0----0----0----|
-------------------------------|-------------------------------|


                                                                
-------------------------------|-------------------------------|
-------------------------------|-------------------------------|
-------------------------------|-------------------------------|
--0--------0----0----0----0----|--4--------4----4----4----4----|
-------------------------------|-------------------------------|


                                                                     
-----------------------------------|--------------------------------|
-----------------------------------|--------------------------------|
-----------------------------------|--------------------------------|
--7----7----7----11----11----11----|--0----0----0----1----1----1----|
-----------------------------------|--------------------------------|


                                                                  
--------------------------------|--------------------------------|
--------------------------------|--------------------------------|
--------------------------------|--------------------------------|
--0----0----0----1----1----1----|--0----0----0----1----1----1----|
--------------------------------|--------------------------------|


                                                            
--------------------------|--------------------------------|
--------------------------|--------------------------------|
--------------------------|--------------------------------|
-----------------3--------|--0----0----0----1----1----1----|
--4----4----4-------------|--------------------------------|


                                                                  
--------------------------------|--------------------------------|
--------------------------------|--------------------------------|
--------------------------------|--------------------------------|
--0----0----0----1----1----1----|--0----0----0----1----1----1----|
--------------------------------|--------------------------------|


                                                              
--------------------------|----------------------------------|
--------------------------|----------------------------------|
--------------------------|----------------------------------|
-----------------3--------|--0----0----0----1----1--1--1--1--|
--4----4----4-------------|----------------------------------|

[ Tab from: http://www.guitartabs.cc/tabs/d/dimmu_borgir/the_insight_and_the_catharsis_btab.html ]
                                                                      
----------------------------------|----------------------------------|
----------------------------------|----------------------------------|
----------------------------------|----------------------------------|
--0----0----0----1----1--1--1--1--|--0----0----0----1----1--1--1--1--|
----------------------------------|----------------------------------|


                                                              
--------------------------|----------------------------------|
--------------------------|----------------------------------|
--------------------------|----------------------------------|
-----------------3--------|--0----0----0----1----1--1--1--1--|
--4----4----4-------------|----------------------------------|


                                                                      
----------------------------------|----------------------------------|
----------------------------------|----------------------------------|
----------------------------------|----------------------------------|
--0----0----0----1----1--1--1--1--|--0----0----0----1----1--1--1--1--|
----------------------------------|----------------------------------|


                                                                  
--------------------------|-------------------|------------------|
--------------------------|-------------------|------------------|
--------------------------|-------------------|------------------|
-----------------3--------|--1----------------|------------------|
--4----4----4-------------|-------------------|------------------|


                                                                            
------------------|------------------|------------------|------------------|
------------------|------------------|------------------|------------------|
------------------|------------------|------------------|------------------|
------------------|------------------|------------------|------------------|
------------------|------------------|------------------|------------------|


                                                                            
------------------|------------------|------------------|------------------|
------------------|------------------|------------------|------------------|
------------------|------------------|------------------|------------------|
------------------|------------------|------------------|------------------|
------------------|------------------|------------------|------------------|


                                                                            
------------------|------------------|------------------|------------------|
------------------|------------------|------------------|------------------|
------------------|------------------|------------------|------------------|
------------------|------------------|------------------|------------------|
------------------|------------------|------------------|------------------|


                                                                                
-------------------|--------------------|-------------------|------------------|
-------------------|--------------------|-------------------|------------------|
-------------------|--------------------|-------------------|------------------|
----------4--------|--3-----------------|--1----------------|------------------|
-------------------|-----------1--------|-------------------|------------------|


                                                                              
-------------------|------------------|-------------------|------------------|
-------------------|------------------|-------------------|------------------|
-------------------|------------------|-------------------|------------------|
--3----------------|------------------|--6----------------|------------------|
-------------------|------------------|-------------------|------------------|


                                                                                
-------------------|--------------------|-------------------|------------------|
-------------------|--------------------|-------------------|------------------|
-------------------|--------------------|-------------------|------------------|
--8----------------|--3-----------------|--1----------------|------------------|
-------------------|-----------1--------|-------------------|------------------|


                                                                 
---------------------|----------------------|-------------------|
---------------------|----------------------|-------------------|
---------------------|----------------------|-------------------|
--3------------3--4--|--6----4--3------4----|--6----------------|
---------------------|----------------------|-------------------|


                                                                                
------------------|-------------------|--------------------|-------------------|
------------------|-------------------|--------------------|-------------------|
------------------|-------------------|--------------------|-------------------|
------------------|--8----------------|--3-----------------|--1----------------|
------------------|-------------------|-----------1--------|-------------------|


                                                                              
------------------|-------------------|------------------|-------------------|
------------------|-------------------|------------------|-------------------|
------------------|-------------------|------------------|-------------------|
------------------|--3----------------|------------------|--6----------------|
------------------|-------------------|------------------|-------------------|


                                                              
--------------------|-------------------|--------------------|
--------------------|-------------------|--------------------|
--------------------|-------------------|--------------------|
--4--------8--------|--8----------------|--3-----------------|
--------------------|-------------------|-----------1--------|


                                                                              
-------------------|------------------|-------------------|------------------|
-------------------|------------------|-------------------|------------------|
-------------------|------------------|-------------------|------------------|
--1----------------|------------------|--3----------------|------------------|
-------------------|------------------|-------------------|------------------|


                                                                               
-------------------|------------------|-------------------|-------------------|
-------------------|------------------|-------------------|-------------------|
-------------------|------------------|-------------------|-------------------|
--6----------------|------------------|--8----------------|-------------------|
-------------------|------------------|-------------------|----------1--------|


                                                                              
-------------------------|-------------------------|-------------------------|
-------------------------|-------------------------|-------------------------|
-------------------------|-------------------------|-------------------------|
--0----------------------|-------------------------|--0----------------------|
-----------0----0-----0--|--0--------0----0-----0--|-----------0----0-----0--|


                                                                              
-------------------------|-------------------------|-------------------------|
-------------------------|-------------------------|-------------------------|
-------------------------|-------------------------|-------------------------|
-------------------------|--0----------------------|-------------------------|
--0--------0----0-----0--|-----------0----0-----0--|--0--------0----0-----0--|


                                                                           
-------------------------|-------------------------|----------------------|
-------------------------|-------------------------|-------5----4---------|
-------------------------|-------------------------|-----------------2----|
--0----------------------|-------------------------|--0-------------------|
-----------0----0-----0--|--0--------0----0-----0--|----------------------|


                                                                           
----------------------|----------------------|----------------------------|
-------4----2----1----|-------5----4---------|----------------------------|
--1-------------------|-----------------2----|--1--2--0-------------------|
----------------------|--0-------------------|-----------3--2--0----------|
----------------------|----------------------|--------------------4h5h4h5-|


                                                                     
----------------------|----------------------|----------------------|
-------5----4---------|-------4----2----1----|-------5----4---------|
-----------------2----|--1-------------------|-----------------2----|
--0-------------------|----------------------|--0-------------------|
----------------------|----------------------|----------------------|


                                                       
----------------------------|-------------------------|
----------------------------|-------------------------|
--1--2--0-------------------|-------------------------|
-----------3--2--0----------|--0----------------------|
--------------------4h5h4h5-|-----------0----0-----0--|


                                                                              
-------------------------|-------------------------|-------------------------|
-------------------------|-------------------------|-------------------------|
-------------------------|-------------------------|-------------------------|
-------------------------|--0----------------------|-------------------------|
--0--------0----0-----0--|-----------0----0-----0--|--0--------0----0-----0--|


                                                                              
-------------------------|-------------------------|-------------------------|
-------------------------|-------------------------|-------------------------|
-------------------------|-------------------------|-------------------------|
--0----------------------|-------------------------|--0----------------------|
-----------0----0-----0--|--0--------0----0-----0--|-----------0----0-----0--|


                                                                     
-------------------------|--------------------|---------------------|
-------------------------|--------------------|---------------------|
-------------------------|--------------------|---------------------|
-------------------------|--5--------4--------|--5--------4----4/---|
--0--------0----0-----0--|--------------------|---------------------|


                                                               
--------------------|--------------------|--------------------|
--------------------|--------------------|--------------------|
--------------------|--------------------|--------------------|
--1--------0--------|--1--------0--------|--5--------4--------|
--------------------|--------------------|--------------------|


                                                               
--------------------|--------------------|--------------------|
--------------------|--------------------|--------------------|
--------------------|--------------------|--------------------|
--5--------4--------|--5--------4--------|--5--------4--------|
--------------------|--------------------|--------------------|


                                                               
--------------------|--------------------|--------------------|
--------------------|--------------------|--------------------|
--------------------|--------------------|--------------------|
--1--------0--------|--1--------0--------|--1--------0--------|
--------------------|--------------------|--------------------|


                                                               
--------------------|--------------------|--------------------|
--------------------|--------------------|--------------------|
--------------------|--------------------|--------------------|
--1--------0--------|--5--------1--------|--5--------1--------|
--------------------|--------------------|--------------------|


                                                               
--------------------|--------------------|--------------------|
--------------------|--------------------|--------------------|
--------------------|--------------------|--------------------|
-----------4--------|-----------4--------|--5--------1--------|
--3-----------------|--3-----------------|--------------------|


                                                               
--------------------|--------------------|--------------------|
--------------------|--------------------|--------------------|
--------------------|--------------------|--------------------|
--5--------1--------|-----------4--------|-----------4--------|
--------------------|--3-----------------|--3-----------------|


                                                          
-------------------|------------------|------------------|
-------------------|------------------|------------------|
-------------------|------------------|------------------|
-------------------|------------------|------------------|
--3----------------|------------------|------------------|


                                                                          
-------------------------|--------------------|--------------------------|
-------------------------|--------------------|--------------------------|
-------------------------|--------------------|--------------------------|
-------------------------|-----------3--------|--------------------------|
----------3--3-3-3-3--1--|--3-----------------|--1--------3--3-3-3-3--1--|


                                                                     
--------------------|--------------------------|--------------------|
--------------------|--------------------------|--------------------|
--------------------|--------------------------|--------------------|
-----------3--------|--------------------------|-----------3--------|
--3-----------------|--1--------3--3-3-3-3--1--|--3-----------------|


                                                                 
---------------------|--------------------|---------------------|
---------------------|--------------------|---------------------|
---------------------|--------------------|---------------------|
---------------------|-----------3--------|---------------------|
--1--------3------1--|--3-----------------|--1--------3------1--|


                                           
------------------------------------------|
------------------------------------------|
------------------------------------------|
------------------------------------------|
--3-3-3-3-3-3-3-3-3-3-1-1-1-1-1-1-1-1-1-1-|


                                           
------------------------------------------|
------------------------------------------|
------------------------------------------|
--3-3-3-3-3-3-3-3-3-3-1-1-1-1-1-1-1-1-1-1-|
------------------------------------------|


                                           
------------------------------------------|
------------------------------------------|
------------------------------------------|
------------------------------------------|
--3-3-3-3-3-3-3-3-3-3-1-1-1-1-1-1-1-1-1-1-|


                                           
------------------------------------------|
------------------------------------------|
------------------------------------------|
--3-3-3-3-3-3-3-3-3-3-1-1-1-1-1-1-1-1-1-1-|
------------------------------------------|


                                           
------------------------------------------|
------------------------------------------|
------------------------------------------|
------------------------------------------|
--3-3-3-3-3-3-3-3-3-3-1-1-1-1-1-1-1-1-1-1-|


                                           
------------------------------------------|
------------------------------------------|
------------------------------------------|
--3-3-3-3-3-3-3-3-3-3-1-1-1-1-1-1-1-1-1-1-|
------------------------------------------|


                                           
------------------------------------------|
------------------------------------------|
------------------------------------------|
------------------------------------------|
--3-3-3-3-3-3-3-3-3-3-1-1-1-1-1-1-1-1-1-1-|


                                                                
------------------------------------------|--------------------|
------------------------------------------|--------------------|
------------------------------------------|--------------------|
--3-3-3-3-3-3-3-3-3-3-1-1-1-1-1-1-1-1-1-1-|-----------3--------|
------------------------------------------|--3-----------------|


                                                                 
---------------------|--------------------|---------------------|
---------------------|--------------------|---------------------|
---------------------|--------------------|---------------------|
---------------------|-----------3--------|---------------------|
--1--------3------1--|--3-----------------|--1--------3------1--|


                                                                     
--------------------|--------------------------|--------------------|
--------------------|--------------------------|--------------------|
--------------------|--------------------------|--------------------|
-----------3--------|--------------------------|-----------3--------|
--3-----------------|--1--------3--3-3-3-3--1--|--3-----------------|


                                                
--------------------------|-------------------||
--------------------------|-------------------||
--------------------------|-------------------||
--------------------------|-------------------||
--1--------3--3-3-3-3--1--|--3----------------||
Comments