Dimmu Borgir - The Blazing Monoliths Of Defiance Chords & Tabs

 

The Blazing Monoliths Of Defiance Chords & Tabs

Dimmu Borgir Chords & Tabs

Version: 2 Type: Tab 0 ratings
1 star 2 stars 3 stars 4 stars 5 stars
comments

The Blazing Monoliths Of Defiance Tab

Riff 1:
|------------------------------------------------------------
|------------------------------------------------------------
|------------------------5-----------------------------------
|---------------666-777----7----------------6h7p6--10---7-6--
|---------7h8p7----------------------7h8p7-------------------
|-555555----------------------55555--------------------------


  ---------------------------------------------------------|
  ---------------------------------------------------------|
  ------------------------2--------------------------------|
  ----------------333-444---4---------------3h4p3--7--4-3--|
  ---------4h5p4----------------------4h5p4----------------|
  --22222----------------------22222-----------------------|


Riff 2: "With hearts of midnight..."
|----------------------------------------|
|----------------------------------------|
|----------------------------------------|
|----------------------------------------|
|-5--8-7--11--5--8-7--11--11-1010101010--|
|-3--6-5--9---3--6-5--9---9--8-8-8-8-8---|
          l           l      . . . . .


Riff 1 again
Riff 2 again

Riff 3:
|------------------------------------------------------------------------|
|------------------------------------------------------------------------|
|------------------------------------------------------------------------|
|-8/9------------------------------------8/9--------------5-5555-5/8-88--|
|-6/7--------------777777-666666-777777--6/7--------------3-3333-3/6-66--|
|-----000000000000---------------------------000000000000----------------|
      ............                           ............   ....


Riff 4:
|-----------------------------------------------------------------------|
|-----------------------------------------------------------------------|
|-----------------------------------------------------------------------|
|-8/9-------9------9-9999--8-8888--9---8/9-------9------5-5555-5--8-8---|
|-6/7-------7------7-7777--6-6666--7---6/7-------7------3-3333-3--6-6---|
|------0000---0000--------------------------0000---0000-----------------|
       ....   ....   ....    ....           ....   ....   ....

[ Tab from: http://www.guitartabs.cc/tabs/d/dimmu_borgir/the_blazing_monoliths_of_defiance_tab_ver_2.html ]
Riff 5:
|-----------------------------------------------------------|
|-----------------------------------------------------------|
|-----------------------------------------------------------|
|--------------------------------------------7777-66666666--|
|-777777-888888-6666-7777777-77777777-888888----------------|
|-----------------------------------------------------------|


Riff 6:
|-------------------------|
|-------------------------|
|-------------------------|
|-9-10-8--9---9-10-14-13--|
|-7-8--6--7---7-8--12-11--|
|-------------------------|
          l           l


Riff 7:
|------------------------------------------------------------------------
|------------------------------------------------------------------------
|------------------------------------------------------------------------
|-999999-101010101010-88-999999------------999--999999-1010101010-14-13--
|-777777-8-8-8-8-8-8--66-777777-777-101010------777777-8-8-8-8-8--12-11--
|------------------------------------------------------------------------


        ----------------------|
        ----------------------|
        ----------------------|
        ----------------------|
        --8888-11111111-8888--|
        ----------------------|

Riff 6 again
Riff 4 again


Fill 1:
|---------------------|
|---------------------|
|---------------------|
|---------------------|
|-5--5-6--6--7--6--3--|
|-5--5-6--6--7--6--3--|
  m  m m     .  .


Riff 8:
|-------------------|
|-------------------|
|-------------------|
|-------------------|
|-5--5-6--6--7-6-3--|
|-5--5-6--6--7-6-3--|


Riff 9:
|-------------------------------------------------|
|-------------------------------------------------|
|-------------------------------------------------|
|-------------------------------------------------|
|-5-5555-5--6-6666-6--7-6-3--3-33-3-33-3-33-3-33--|
|-5-5555-5--6-6666-6--7-6-3--3-33-3-33-3-33-3-33--|
    ....      ....             ..   ..   ..   ..


Riff 10:
|---------------------------------------|
|---------------------------------------|
|---------------------------------------|
|---------------------------------------|
|-4-44444444--4--5-55555555--5---6-5-2--|
|-5-55555555--5--6-66666666--6---7-6-3--|

Riff 2 again
Riff 1 again
Riff 2 again
Comments