Dimmu Borgir - Stien Chords & Tabs

 

Stien Chords & Tabs

Dimmu Borgir Chords & Tabs

Version: 1 Type: Bass Tab 0 ratings
1 star 2 stars 3 stars 4 stars 5 stars
comments

Stien Bass Tab

5 string n listen for timing

G||---------------------|----------------------|---------------------|
D||---------------------|----------------------|---------------------|
A||-----------2---------|----------------------|-----------2---------|
E||--0---------------1--|--3----5----0---------|--0---------------1--|
B||---------------------|-----------------4----|---------------------|


                                                                    
----------------------|---------------------|----------------------|
----------------------|---------------------|----------------------|
----------------------|-----------2---------|----------------------|
--3----5----0---------|--0---------------1--|--3----5----0---------|
-----------------4----|---------------------|-----------------4----|


                                                                   
---------------------|----------------------|---------------------|
---------------------|----------------------|---------------------|
-----------2---------|----------------------|---------------------|
--0---------------1--|--3----5----0---------|--0--------2------0--|
---------------------|-----------------4----|---------------------|


                                                                  
---------------------|---------------------|---------------------|
---------------------|---------------------|---------------------|
---------------------|---------------------|------------2--------|
-------0-------------|--0--------2------0--|-------0-------------|
--3---------0--------|---------------------|--3------------------|


                                                                  
---------------------|---------------------|---------------------|
---------------------|---------------------|---------------------|
---------------------|---------------------|---------------------|
--0--------2------0--|-------0-------------|--0--------2------0--|
---------------------|--3---------0--------|---------------------|


                                                                   
---------------------|---------------------|----------------------|
---------------------|---------------------|----------------------|
------------2--------|-----------2---------|----------------------|
-------0-------------|--0---------------1--|--3----5----0---------|
--3------------------|---------------------|-----------------4----|


                                                                   
---------------------|----------------------|---------------------|
---------------------|----------------------|---------------------|
-----------2---------|----------------------|-----------2---------|
--0---------------1--|--3----5----0---------|--0---------------1--|
---------------------|-----------------4----|---------------------|


                                                                    
----------------------|---------------------|----------------------|
----------------------|---------------------|----------------------|
----------------------|-----------2---------|----------------------|
--3----5----0---------|--0---------------1--|--3----5----0---------|
-----------------4----|---------------------|-----------------4----|


                                                                  
---------------------|---------------------|---------------------|
---------------------|---------------------|---------------------|
---------------------|---------------------|---------------------|
--0--------2------0--|-------0-------------|--0--------2------0--|
---------------------|--3---------0--------|---------------------|


                                                                  
---------------------|---------------------|---------------------|
---------------------|---------------------|---------------------|
------------2--------|---------------------|---------------------|
-------0-------------|--0--------2------0--|-------0-------------|
--3------------------|---------------------|--3---------0--------|


                                                                  
---------------------|---------------------|---------------------|
---------------------|---------------------|---------------------|
---------------------|------------2--------|-----------2---------|
--0--------2------0--|-------0-------------|--0---------------1--|
---------------------|--3------------------|---------------------|


                                                                    
----------------------|---------------------|----------------------|
----------------------|---------------------|----------------------|
----------------------|-----------2---------|----------------------|
--3----5----0---------|--0---------------1--|--3----5----0---------|
-----------------4----|---------------------|-----------------4----|

[ Tab from: http://www.guitartabs.cc/tabs/d/dimmu_borgir/stien_btab.html ]
                                                                   
---------------------|----------------------|---------------------|
---------------------|----------------------|---------------------|
-----------2---------|----------------------|-----------2---------|
--0---------------1--|--3----5----0---------|--0---------------1--|
---------------------|-----------------4----|---------------------|


                                                                   
----------------------|---------------------|---------------------|
----------------------|---------------------|---------------------|
----------------------|---------------------|---------------------|
--3----5----0---------|--0--------2------0--|-------0-------------|
-----------------4----|---------------------|--3---------0--------|


                                                                  
---------------------|---------------------|---------------------|
---------------------|---------------------|---------------------|
---------------------|------------2--------|---------------------|
--0--------2------0--|-------0-------------|--0--------2------0--|
---------------------|--3------------------|---------------------|


                                                                  
---------------------|---------------------|---------------------|
---------------------|---------------------|---------------------|
---------------------|---------------------|------------2--------|
-------0-------------|--0--------2------0--|-------0-------------|
--3---------0--------|---------------------|--3------------------|


                                                                   
---------------------|----------------------|---------------------|
---------------------|----------------------|---------------------|
-----------2---------|----------------------|-----------2---------|
--0---------------1--|--3----5----0---------|--0---------------1--|
---------------------|-----------------4----|---------------------|


                                                                    
----------------------|---------------------|----------------------|
----------------------|---------------------|----------------------|
----------------------|-----------2---------|----------------------|
--3----5----0---------|--0---------------1--|--3----5----0---------|
-----------------4----|---------------------|-----------------4----|


                                                                   
---------------------|----------------------|---------------------|
---------------------|----------------------|---------------------|
-----------2---------|----------------------|---------------------|
--0---------------1--|--3----5----0---------|--0--------2------0--|
---------------------|-----------------4----|---------------------|


                                                                  
---------------------|---------------------|---------------------|
---------------------|---------------------|---------------------|
---------------------|---------------------|------------2--------|
-------0-------------|--0--------2------0--|-------0-------------|
--3---------0--------|---------------------|--3------------------|


                                                                  
---------------------|---------------------|---------------------|
---------------------|---------------------|---------------------|
---------------------|---------------------|---------------------|
--0--------2------0--|-------0-------------|--0--------2------0--|
---------------------|--3---------0--------|---------------------|


                                                                   
---------------------|---------------------|----------------------|
---------------------|---------------------|----------------------|
------------2--------|-----------2---------|----------------------|
-------0-------------|--0---------------1--|--3----5----0---------|
--3------------------|---------------------|-----------------4----|


                                                                   
---------------------|----------------------|---------------------|
---------------------|----------------------|---------------------|
-----------2---------|----------------------|-----------2---------|
--0---------------1--|--3----5----0---------|--0---------------1--|
---------------------|-----------------4----|---------------------|


                                                                    
----------------------|---------------------|----------------------|
----------------------|---------------------|----------------------|
----------------------|-----------2---------|----------------------|
--3----5----0---------|--0---------------1--|--3----5----0---------|
-----------------4----|---------------------|-----------------4----|


                     
-------------------||
-------------------||
-------------------||
--0----------------||
-------------------||
Comments