Dimmu Borgir - Spellbound By The Devil Chords & Tabs

 

Spellbound By The Devil Chords & Tabs

Dimmu Borgir Chords & Tabs

Version: 2 Type: Bass Tab 0 ratings
1 star 2 stars 3 stars 4 stars 5 stars
comments

Spellbound By The Devil Bass Tab

|--------------------|
|--------------------|
|-5-4-2-4--4--4-4--4-|
|--------------------|

|------------------------------|
|------------------------------|
|-5-4-2-4--4444-4444-4444-4444-|
|------------------------------|

|------------------------------|
|------------------------------|
|-5-4-2-4--4444444444444444444-|
|------------------------------|

|-------|
|-------|
|-5-4-2-|
|-------|

|-----------------|
|-----------------|
|-----7/6-----7/8-|
|-000-----000-----|

|-----------------|
|--------------1--|
|-----332233333---|
|-0000------------|

|-----------------|
|-----------------|
|-----------------|
|-0-1-0-1-0-1-0-1-|

tremolo
[ Tab from: http://www.guitartabs.cc/tabs/d/dimmu_borgir/spellbound_by_the_devil_btab_ver_2.html ]
|----------------------------------|
|----------------------------------|
|----------------------------------|
|-0...1...0...1...0...1...0...1...-

|------------|
|------------|
|------------|
|-4444-45555-|

|-------------------------------------------|
|-------------------------------------------|
|-------------------------------------6--5--|
|-4-4-4-4-4-4-0-0-0-0-0-0-3-3-3-3-3-3-------|

|---------------------------------------------------------|
|---------------------------------------------------------|
|-0-00-00-00-0------/7-77-55-------------------/5-55-33---|
|--------------3-33----------1-11-11-11-1-3-33----------3-|

|------------------------------------------------------|
|------------------------------------------------------|
|-0-00-00-00-0-----------------------------------------|
|--------------3-33-33-33-3--1-11-11-11-1-3-33-34-44-4-|
Comments