Dimmu Borgir - Spellbound By The Devil Chords & Tabs

 

Spellbound By The Devil Chords & Tabs

Dimmu Borgir Chords & Tabs

Version: 1 Type: Bass Tab 0 ratings
1 star 2 stars 3 stars 4 stars 5 stars
comments

Spellbound By The Devil Bass Tab

   
Dimmmu Borgir
Spellbound by the devil
Album: enthrone darkness triumphant
Bass tab And notes for the synth

Intro 
|---------------------------------------------------------| 
|---------------------------------------------------------| 
|-4----5--4--2--4------5--4--2--4------5--4--2--4---------| 
|---------------------------------------------------------| 
  Db   D  Db B  Db     D  Db B  Db     D  Db D  Db 


Riff 1 (Vocals enters) 		   (play 8 times) 
|---------------------------------------------------------------------| 
|---------------------------------------------------------------------|
|--5--4--2--4---4-4444444----4-44444----------------------------------| 
|--------------------------4----------4-------------------------------| 
   D  Db B  Db  Db         Ab         Ab 


Bass break | Riff 2 (play 2 times) 
|----------|---------------------------------------------------------------| 
|----------|---------------------------------------------------------------| 
|----------|----------7--6-----------6--7------------7--6------------6--7--| 
|----------|--0--0--0-------0--0--0--------0--0--0---------0--0--0---------|             
              E       E  Eb E        Eb E  E         E  Eb E         Eb E 


Riff 3 (death and terror rules...)(4 times) 
|--------------------------------------| 
|--------------------------------------| 
|--------3--2--3-3333/6----------------| 
|--0-0-0-------------------------------| 
   E     C  B  C      Eb 


Play riff 2 two times 
[ Tab from: http://www.guitartabs.cc/tabs/d/dimmu_borgir/spellbound_by_the_devil_btab.html ]
 Break with synth 
|---------------------------------------------------------------------| 
|---------------------------------------------------------------------| 
|---------------------------------------------------------------------| 
|-0--------1------0------1--------0-----1--------0------1-------------| 
  E        F      E      F        E     F        E      F 


Riff 4 
|----------------------------------------------------------------------| 
|----------------------------------------------------------------------| 
|----------------------------------------------------------------------| 
|-0000000000000000000-111111111111111111-000000000000000-1111111111111-| 
  E                   F                  E               F 

Riff 5 
|---------------------------------------| 
|---------------------------------------| 
|---------------------------------------| 
|-0--0-0-0-0---1--1-1-1-1---------------| 
  E            F 

Play the break again 

Play riff 4 slower 

Play riff 5 


Riff 6 
|---------------------------------------------------------------------| 
|---------------------------------------------------------------------| 
|-11--11-11-11--7--7-7-7--10--10-10-10--6--5--------------------------| 
|---------------------------------------------------------------------| 
  Ab            E         Ab            Eb D 

Keyboard alone 
Notes: A E A, G D G, F C F, 

 Riff 7 
|----------------------------------------7---------------| 
|------------------------------------4-7---7-------------| 
|-----------------------------------5--------5-----------| 
|--5-5-5-5--3-3-3-3--1-1-1-1--3-3-3----------------------| 


Outro 
|--------------------------------------------------------------| 
|--------------------------------------------------------------| 
|--------------------------------------------------------------| 
|5-5555-5-5555-3-3333-3-3333-1-1111-1-1111-3-3333-3-3333-3-----|
Comments