Dimmu Borgir - Satan My Master Chords & Tabs

 

Satan My Master Chords & Tabs

Dimmu Borgir Chords & Tabs

Version: 1 Type: Tab 0 ratings
1 star 2 stars 3 stars 4 stars 5 stars
comments

Satan My Master Tab

   
Gtr I (E A D G B E) - 'Lead Guitar'
Gtr II (E A D G B E) - 'Guitar'
Gtr III (E A D G B E) - 'Guitar'

  Q=180
 4/4
  Gtr II
  E S S S S S S S S S S Q    S S S S S S S S S S S S Q
|--------------------------|----------------------------|
|--------------------------|----------------------------|
|--------------------------|----------------------------|
|--------------------------|----------------------------|
|-3---------------------2--|-------------------------1--|
|-1-1-1-1-1-1-1-1-1-1-1----|-1-1-1-1-1-1-1-1-1-1-1-1----|


  S S S S S S S S S S S S Q    S S S S S S S S E. S +S  E.
|----------------------------|------------------------------|
|----------------------------|------------------------------|
|----------------------------|------------------------------|
|----------------------------|--------------------------1---|
|-------------------------0--|-----------------4--4-(4)-----|
|-1-1-1-1-1-1-1-1-1-1-1-1----|-1-1-1-1-1-1-1-1-2--2-(2)-4---|


  E S S S S S S S S S S Q    S S S S S S S S S S S S Q
|--------------------------|----------------------------|
|--------------------------|----------------------------|
|--------------------------|----------------------------|
|--------------------------|----------------------------|
|-3---------------------2--|-------------------------1--|
|-1-1-1-1-1-1-1-1-1-1-1----|-1-1-1-1-1-1-1-1-1-1-1-1----|


                                 Gtrs II, III
  S S S S S S S S S S S S Q    S S S S S S S S E. S +S  E.
|----------------------------|------------------------------|
|----------------------------|------------------------------|
|----------------------------|------------------------------|
|----------------------------|--------------------------1---|
|-------------------------0--|-----------------4--4-(4)-----|
|-1-1-1-1-1-1-1-1-1-1-1-1----|-1-1-1-1-1-1-1-1-2--2-(2)-4---|


  E S S S S S S S S S S Q    S S S S S S S S S S S S Q
|--------------------------|----------------------------|
|--------------------------|----------------------------|
|--------------------------|----------------------------|
|--------------------------|----------------------------|
|-3---------------------2--|-------------------------1--|
|-1-1-1-1-1-1-1-1-1-1-1----|-1-1-1-1-1-1-1-1-1-1-1-1----|


  S S S S S S S S S S S S Q    S S S S S S S S E. S +S  E.
|----------------------------|------------------------------|
|----------------------------|------------------------------|
|----------------------------|------------------------------|
|----------------------------|--------------------------1---|
|-------------------------0--|-----------------4--4-(4)-----|
|-1-1-1-1-1-1-1-1-1-1-1-1----|-1-1-1-1-1-1-1-1-2--2-(2)-4---|


  E S S S S S S S S S S Q    S S S S S S S S S S S S Q
|--------------------------|----------------------------|
|--------------------------|----------------------------|
|--------------------------|----------------------------|
|--------------------------|----------------------------|
|-3---------------------2--|-------------------------1--|
|-1-1-1-1-1-1-1-1-1-1-1----|-1-1-1-1-1-1-1-1-1-1-1-1----|


  S S S S S S S S S S S S Q    S S S S S S S S E. S +S  E.
|----------------------------|------------------------------|
|----------------------------|------------------------------|
|----------------------------|------------------------------|
|----------------------------|--------------------------1---|
|-------------------------0--|-----------------4--4-(4)-----|
|-1-1-1-1-1-1-1-1-1-1-1-1----|-1-1-1-1-1-1-1-1-2--2-(2)-4---|


  E S S S S S S S S S S S S S S   E S S S S S S S S S S S S S S
|-------------------------------|--------------------------------|
|-------------------------------|--------------------------------|
|-------------------------------|--------------------------------|
|-------------------------------|--------------------------------|
|-4-----------------------------|-5-3-3-3-3-3-3-3-3-3-3-3-3-3-3--|
|-2-2-2-2-2-2-2-2-2-2-2-2-2-2-2-|-3------------------------------|


  E S S S S S S S S S S S S S S   E S S S S S S S S S S S S S S
|-------------------------------|--------------------------------|
|-------------------------------|--------------------------------|
|-------------------------------|--------------------------------|
|-------------------------------|--------------------------------|
|-4-----------------------------|-5-3-3-3-3-3-3-3-3-3-3-3-3-3-3--|
|-2-2-2-2-2-2-2-2-2-2-2-2-2-2-2-|-3------------------------------|


  E S S S S S S S S S S S S S S   E S S S S S S S S S S S S S S
|-------------------------------|--------------------------------|
|-------------------------------|--------------------------------|
|-------------------------------|--------------------------------|
|-------------------------------|--------------------------------|
|-4-----------------------------|-5-3-3-3-3-3-3-3-3-3-3-3-3-3-3--|
|-2-2-2-2-2-2-2-2-2-2-2-2-2-2-2-|-3------------------------------|


  E S S S S S S S S S S S S S S   E S S S S S S S S S S S S S S
|-------------------------------|--------------------------------|
|-------------------------------|--------------------------------|
|-------------------------------|--------------------------------|
|-------------------------------|--------------------------------|
|-4-----------------------------|-5-3-3-3-3-3-3-3-3-3-3-3-3-3-3--|
|-2-2-2-2-2-2-2-2-2-2-2-2-2-2-2-|-3------------------------------|


  E S S S S S S S S S S Q    S S S S S S S S S S S S Q
|--------------------------|----------------------------|
|--------------------------|----------------------------|
|--------------------------|----------------------------|
|--------------------------|----------------------------|
|-3---------------------2--|-------------------------1--|
|-1-1-1-1-1-1-1-1-1-1-1----|-1-1-1-1-1-1-1-1-1-1-1-1----|


  S S S S S S S S S S S S Q    S S S S S S S S E. S +S  E.
|----------------------------|------------------------------|
|----------------------------|------------------------------|
|----------------------------|------------------------------|
|----------------------------|--------------------------1---|
|-------------------------0--|-----------------4--4-(4)-----|
|-1-1-1-1-1-1-1-1-1-1-1-1----|-1-1-1-1-1-1-1-1-2--2-(2)-4---|


  E S S S S S S S S S S Q    S S S S S S S S S S S S Q
|--------------------------|----------------------------|
|--------------------------|----------------------------|
|--------------------------|----------------------------|
|--------------------------|----------------------------|
|-3---------------------2--|-------------------------1--|
|-1-1-1-1-1-1-1-1-1-1-1----|-1-1-1-1-1-1-1-1-1-1-1-1----|


  S S S S S S S S S S S S Q    S S S S S S S S E. S +S  E.
|----------------------------|------------------------------|
|----------------------------|------------------------------|
|----------------------------|------------------------------|
|----------------------------|--------------------------1---|
|-------------------------0--|-----------------4--4-(4)-----|
|-1-1-1-1-1-1-1-1-1-1-1-1----|-1-1-1-1-1-1-1-1-2--2-(2)-4---|


  E S S S S S S S S S S S S S S   E S S S S S S S S S S S S S S
|-------------------------------|--------------------------------|
|-------------------------------|--------------------------------|
|-------------------------------|--------------------------------|
|-------------------------------|--------------------------------|
|-4-----------------------------|-5-3-3-3-3-3-3-3-3-3-3-3-3-3-3--|
|-2-2-2-2-2-2-2-2-2-2-2-2-2-2-2-|-3------------------------------|


  E S S S S S S S S S S S S S S   E S S S S S S S S S S S S S S
|-------------------------------|--------------------------------|
|-------------------------------|--------------------------------|
|-------------------------------|--------------------------------|
|-------------------------------|--------------------------------|
|-4-----------------------------|-5-3-3-3-3-3-3-3-3-3-3-3-3-3-3--|
|-2-2-2-2-2-2-2-2-2-2-2-2-2-2-2-|-3------------------------------|


  E S S S S S S S S S S S S S S   E S S S S S S S S S S S S S S
|-------------------------------|--------------------------------|
|-------------------------------|--------------------------------|
|-------------------------------|--------------------------------|
|-------------------------------|--------------------------------|
|-4-----------------------------|-5-3-3-3-3-3-3-3-3-3-3-3-3-3-3--|
|-2-2-2-2-2-2-2-2-2-2-2-2-2-2-2-|-3------------------------------|


  E S S S S S S S S S S S S S S   E S S S S S S S S S S S S S S
|-------------------------------|--------------------------------|
|-------------------------------|--------------------------------|
|-------------------------------|--------------------------------|
|-------------------------------|--------------------------------|
|-4-----------------------------|-5-3-3-3-3-3-3-3-3-3-3-3-3-3-3--|
|-2-2-2-2-2-2-2-2-2-2-2-2-2-2-2-|-3------------------------------|


  E S S S S S S E S S S S S S   E S S S S S S E S S S S S S
|-----------------------------|-----------------------------|
|-----------------------------|-----------------------------|
|-----------------------------|-----------------------------|
|-----------------------------|-----------------------------|
|-3-------------4-------------|-5-------------6-------------|
|-1-1-1-1-1-1-1-2-2-2-2-2-2-2-|-3-3-3-3-3-3-3-4-4-4-4-4-4-4-|


  E S S S S S S E S S S S S S   E S S S S S S E S S S S S S
|-----------------------------|-----------------------------|
|-----------------------------|-----------------------------|
|-----------------------------|-----------------------------|
|-----------------------------|-----------------------------|
|-3-------------4-------------|-5-------------6-------------|
|-1-1-1-1-1-1-1-2-2-2-2-2-2-2-|-3-3-3-3-3-3-3-4-4-4-4-4-4-4-|


  E S S S S S S E S S S S S S   E S S S S S S E S S S S S S
|-----------------------------|-----------------------------|
|-----------------------------|-----------------------------|
|-----------------------------|-----------------------------|
|-----------------------------|-----------------------------|
|-3-------------4-------------|-5-------------6-------------|
|-1-1-1-1-1-1-1-2-2-2-2-2-2-2-|-3-3-3-3-3-3-3-4-4-4-4-4-4-4-|


  Gtr I
  W                             +W                               W
|-8---------------------------|-(8)---------------------------|-20------------|
|-----------------------------|-------------------------------|---------------|
|-----------------------------|-------------------------------|---------------|
|-----------------------------|-------------------------------|---------------|
|-----------------------------|-------------------------------|---------------|
|-----------------------------|-------------------------------|---------------|
|
| Gtrs II, III
| E S S S S S S E S S S S S S    E  S S S S S S E S S S S S S    H.      E E
|-----------------------------|-------------------------------|---------------|
|-----------------------------|-------------------------------|---------------|
|-----------------------------|-------------------------------|---------------|
|-----------------------------|-------------------------------|--5-------3-5--|
|-3-------------4-------------|--5--------------6-------------|--3---------3--|
|-1-1-1-1-1-1-1-2-2-2-2-2-2-2-|--3--3-3-3-3-3-3-4-4-4-4-4-4-4-|----------6----|

[ Tab from: http://www.guitartabs.cc/tabs/d/dimmu_borgir/satan_my_master_tab.html ]
   +H      E  E  +Q      +W
|-(20)----------------|---------------|
|---------------------|---------------|
|---------------------|---------------|
|---------------------|---------------|
|---------20-22-(22)--|-(22)----------|
|---------------------|---------------|
|
|   H.            Q       H.      E E
|---------------------|---------------|
|---------------------|---------------|
|---------------------|---------------|
|---6-------------6---|---5-------3-5-|
|---4-------------4---|---3---------3-|
|---------------------|-----------6---|


   S   S  S  S  S  S  S  S  S  S  S  S  S  S  S  S
|---------------------------------------------------|
|---------------------------------------------------|
|---------------------------------------------------|
|-21--22-21-22-21-22-21-22-21-22-21-22-21-22-21-22--|
|---------------------------------------------------|
|---------------------------------------------------|
|
|  H.                                   Q
|---------------------------------------------------|
|---------------------------------------------------|
|---------------------------------------------------|
|--6------------------------------------6-----------|
|--4------------------------------------4-----------|
|---------------------------------------------------|


   S   S  S  S  S  S  S  S  S  S  S  S  S  S  S  S
|--------------------------------------------------|
|--------------------------------------------------|
|--------------------------------------------------|
|-21--22-21-22-21-22-21-22-21-22-21-22-21-22-21-22-|
|--------------------------------------------------|
|--------------------------------------------------|
|
|  H.                                   E     E
|--------------------------------------------------|
|--------------------------------------------------|
|--------------------------------------------------|
|--5------------------------------------3-----5----|
|--3------------------------------------------3----|
|---------------------------------------6----------|


   S   S  S  S  S  S  S  S  H
|---------------------------------|
|---------------------------------|
|---------------------------------|
|-21--22-21-22-21-22-21-22-21-----|
|---------------------------------|
|---------------------------------|
|
|  H.                          Q
|---------------------------------|
|---------------------------------|
|---------------------------------|
|--6---------------------------6--|
|--4---------------------------4--|
|---------------------------------|


   S   S  S  S  S  S  S  S  S  S  S  S  S  S  S  S
|--------------------------------------------------|
|--------------------------------------------------|
|--------------------------------------------------|
|--------------------------------------------------|
|--------------------------------------------------|
|-20--20-20-20-20-20-20-20-20-20-20-20-20-20-20-20-|
|
|  H.                                   E     E
|--------------------------------------------------|
|--------------------------------------------------|
|--------------------------------------------------|
|--5------------------------------------3-----5----|
|--3------------------------------------------3----|
|---------------------------------------6----------|


   S   S  S  S  S  S  S  S  E  E  E  E    W
|--------------------------20-20-20-20-|-20----|
|--------------------------------------|-------|
|--------------------------------------|-------|
|--------------------------------------|-------|
|--------------------------------------|-------|
|-20--20-20-20-20-20-20-20-------------|-------|
|
|  H.                             Q       W
|--------------------------------------|-------|
|--------------------------------------|-------|
|--------------------------------------|-------|
|--6------------------------------6----|-------|
|--4------------------------------4----|--4----|
|--------------------------------------|--2----|


   E  S  S  S  S  S  S  S  S  S  S  S  S  S  S
|----------------------------------------------|
|----19-19-19-19-19-19-19-19-19-19-19-19-19-19-|
|-21-------------------------------------------|
|----------------------------------------------|
|----------------------------------------------|
|----------------------------------------------|
|
|  E  S  S  S  S  S  S  S  S  S  S  Q
|----------------------------------------------|
|----------------------------------------------|
|----------------------------------------------|
|----------------------------------------------|
|--3--------------------------------2----------|
|--1--1--1--1--1--1--1--1--1--1--1-------------|


   E    S  S  S  S  S  S  S  S  S  S  S  S  S  S
|------16-16-16-16-16-16-16-16-16-16-16-16-16-16-|
|-17---------------------------------------------|
|------------------------------------------------|
|------------------------------------------------|
|------------------------------------------------|
|------------------------------------------------|
|
|  S S  S  S  S  S  S  S  S  S  S  S  Q
|------------------------------------------------|
|------------------------------------------------|
|------------------------------------------------|
|------------------------------------------------|
|-------------------------------------1----------|
|--1-1--1--1--1--1--1--1--1--1--1--1-------------|


   E    S  S  S  S  S  S  S  S  S  S  S  S  S  S
|-14---17-17-17-17-17-17-17-17-17-17-17-17-17-17-|
|------------------------------------------------|
|------------------------------------------------|
|------------------------------------------------|
|------------------------------------------------|
|------------------------------------------------|
|
|  S S  S  S  S  S  S  S  S  S  S  S  Q
|------------------------------------------------|
|------------------------------------------------|
|------------------------------------------------|
|------------------------------------------------|
|-------------------------------------0----------|
|--1-1--1--1--1--1--1--1--1--1--1--1-------------|


   W
|-17---------------------------|
|------------------------------|
|------------------------------|
|------------------------------|
|------------------------------|
|------------------------------|
|
|  S S S S S S S S E. S +S  E.
|------------------------------|
|------------------------------|
|------------------------------|
|---------------------------1--|
|------------------4--4-(4)----|
|--1-1-1-1-1-1-1-1-2--2-(2)-4--|


  Gtrs II, III
  E S S S S S S S S S S S S S S   E S S S S S S S S S S S S S S
|-------------------------------|--------------------------------|
|-------------------------------|--------------------------------|
|-------------------------------|--------------------------------|
|-------------------------------|--------------------------------|
|-4-----------------------------|-5-3-3-3-3-3-3-3-3-3-3-3-3-3-3--|
|-2-2-2-2-2-2-2-2-2-2-2-2-2-2-2-|-3------------------------------|


  E S S S S S S S S S S S S S S   E S S S S S S S S S S S S S S
|-------------------------------|--------------------------------|
|-------------------------------|--------------------------------|
|-------------------------------|--------------------------------|
|-------------------------------|--------------------------------|
|-4-----------------------------|-5-3-3-3-3-3-3-3-3-3-3-3-3-3-3--|
|-2-2-2-2-2-2-2-2-2-2-2-2-2-2-2-|-3------------------------------|


  E S S S S S S S S S S S S S S   E S S S S S S S S S S S S S S
|-------------------------------|--------------------------------|
|-------------------------------|--------------------------------|
|-------------------------------|--------------------------------|
|-------------------------------|--------------------------------|
|-4-----------------------------|-5-3-3-3-3-3-3-3-3-3-3-3-3-3-3--|
|-2-2-2-2-2-2-2-2-2-2-2-2-2-2-2-|-3------------------------------|


  E S S S S S S S S S S S S S S   E S S S S S S S S S S S S S S
|-------------------------------|--------------------------------|
|-------------------------------|--------------------------------|
|-------------------------------|--------------------------------|
|-------------------------------|--------------------------------|
|-4-----------------------------|-5-3-3-3-3-3-3-3-3-3-3-3-3-3-3--|
|-2-2-2-2-2-2-2-2-2-2-2-2-2-2-2-|-3------------------------------|


  E S S S S S S S S S S Q    S S S S S S S S S S S S Q
|--------------------------|----------------------------|
|--------------------------|----------------------------|
|--------------------------|----------------------------|
|--------------------------|----------------------------|
|-3---------------------2--|-------------------------1--|
|-1-1-1-1-1-1-1-1-1-1-1----|-1-1-1-1-1-1-1-1-1-1-1-1----|


  S S S S S S S S S S S S Q    S S S S S S S S E. S +S  E.
|----------------------------|------------------------------|
|----------------------------|------------------------------|
|----------------------------|------------------------------|
|----------------------------|--------------------------1---|
|-------------------------0--|-----------------4--4-(4)-----|
|-1-1-1-1-1-1-1-1-1-1-1-1----|-1-1-1-1-1-1-1-1-2--2-(2)-4---|


  E S S S S S S S S S S Q    S S S S S S S S S S S S Q
|--------------------------|----------------------------|
|--------------------------|----------------------------|
|--------------------------|----------------------------|
|--------------------------|----------------------------|
|-3---------------------2--|-------------------------1--|
|-1-1-1-1-1-1-1-1-1-1-1----|-1-1-1-1-1-1-1-1-1-1-1-1----|


  S S S S S S S S S S S S Q    S S S S S S S S E. S +S  E.
|----------------------------|------------------------------|
|----------------------------|------------------------------|
|----------------------------|------------------------------|
|----------------------------|--------------------------1---|
|-------------------------0--|-----------------4--4-(4)-----|
|-1-1-1-1-1-1-1-1-1-1-1-1----|-1-1-1-1-1-1-1-1-2--2-(2)-4---|


  E S S S S S S S S S S Q    S S S S S S S S S S S S Q
|--------------------------|----------------------------|
|--------------------------|----------------------------|
|--------------------------|----------------------------|
|--------------------------|----------------------------|
|-3---------------------2--|-------------------------1--|
|-1-1-1-1-1-1-1-1-1-1-1----|-1-1-1-1-1-1-1-1-1-1-1-1----|


  S S S S S S S S S S S S Q    S S S S S S S S E. S +S  E.
|----------------------------|------------------------------|
|----------------------------|------------------------------|
|----------------------------|------------------------------|
|----------------------------|--------------------------1---|
|-------------------------0--|-----------------4--4-(4)-----|
|-1-1-1-1-1-1-1-1-1-1-1-1----|-1-1-1-1-1-1-1-1-2--2-(2)-4---|


  E S S S S S S S S S S Q    S S S S S S S S S S S S Q
|--------------------------|----------------------------|
|--------------------------|----------------------------|
|--------------------------|----------------------------|
|--------------------------|----------------------------|
|-3---------------------2--|-------------------------1--|
|-1-1-1-1-1-1-1-1-1-1-1----|-1-1-1-1-1-1-1-1-1-1-1-1----|


  S S S S S S S S S S S S Q    S S S S S S S S E. S +S  E.   Q  Q  H
|----------------------------|-----------------------------|------------*|
|----------------------------|-----------------------------|------------*|
|----------------------------|-----------------------------|------------*|
|----------------------------|--------------------------1--|------------*|
|-------------------------0--|-----------------4--4-(4)----|-3----------*|
|-1-1-1-1-1-1-1-1-1-1-1-1----|-1-1-1-1-1-1-1-1-2--2-(2)-4--|-1----------*|
Comments