Dimmu Borgir - Relinquishment Of Spirit And Flesh Chords & Tabs

 

Relinquishment Of Spirit And Flesh Chords & Tabs

Dimmu Borgir Chords & Tabs

Version: 1 Type: Bass Tab 0 ratings
1 star 2 stars 3 stars 4 stars 5 stars
comments

Relinquishment Of Spirit And Flesh Bass Tab

6 string

G||------|------|------|------|------|------|------|------|
D||------|------|------|------|------|------|------|------|
A||------|------|------|------|------|------|------|------|
E||------|------|------|------|------|------|------|------|
B||------|------|------|------|------|------|------|------|


                                                              
|--------------------|-------------------|-------------------|
|*-------------------|-------------------|-------------------|
|---7----------------|--6----------------|--7----------------|
|*-------------------|-------------------|-------------------|
|--------------------|-------------------|-------------------|


                                                                                
-------------------|-------------------|-------------------|-------------------|
-------------------|-------------------|-------------------|-------------------|
--6----------------|--9----------------|--8----------------|--9----------------|
-------------------|-------------------|-------------------|-------------------|
-------------------|-------------------|-------------------|-------------------|


                    2x                                   
--------------------||----------------------------------|
-------------------*||----------------------------------|
--8-----------------||----------------------------------|
-------------------*||--0-0-0-0-0-0-0-0-0-0-0-0-0-0-0-0-|
--------------------||----------------------------------|


                                                                      
----------------------------------|----------------------------------|
----------------------------------|----------------------------------|
----------------------------------|----------------------------------|
--0-0-0-0-0-0-0-0-0-0-0-0-0-0-0-0-|--1-1-1-1-1-1-1-1-1-1-1-1-1-1-1-1-|
----------------------------------|----------------------------------|


                                                                      
----------------------------------|----------------------------------|
----------------------------------|----------------------------------|
----------------------------------|----------------------------------|
--5-5-5-5-5-5-5-5-1-1-1-1-3-3-3-3-|--0-0-0-0-0-0-0-0-0-0-0-0-0-0-0-0-|
----------------------------------|----------------------------------|


                                                                      
----------------------------------|----------------------------------|
----------------------------------|----------------------------------|
----------------------------------|----------------------------------|
--0-0-0-0-0-0-0-0-0-0-0-0-0-0-0-0-|--1-1-1-1-1-1-1-1-1-1-1-1-1-1-1-1-|
----------------------------------|----------------------------------|


                                                                      
----------------------------------|----------------------------------|
----------------------------------|----------------------------------|
----------------------------------|----------------------------------|
--5-5-5-5-5-5-5-5-5-5-5-5-5-5-5-5-|--0-0-0-0-0-0-0-0-0-0-0-0-0-0-0-0-|
----------------------------------|----------------------------------|


                                                                      
----------------------------------|----------------------------------|
----------------------------------|----------------------------------|
----------------------------------|----------------------------------|
--0-0-0-0-0-0-0-0-0-0-0-0-0-0-0-0-|--1-1-1-1-1-1-1-1-1-1-1-1-1-1-1-1-|
----------------------------------|----------------------------------|


                                                                      
----------------------------------|----------------------------------|
----------------------------------|----------------------------------|
----------------------------------|----------------------------------|
--5-5-5-5-5-5-5-5-1-1-1-1-3-3-3-3-|--0-0-0-0-0-0-0-0-0-0-0-0-0-0-0-0-|
----------------------------------|----------------------------------|


                                                                      
----------------------------------|----------------------------------|
----------------------------------|----------------------------------|
----------------------------------|----------------------------------|
--0-0-0-0-0-0-0-0-0-0-0-0-0-0-0-0-|--1-1-1-1-1-1-1-1-1-1-1-1-1-1-1-1-|
----------------------------------|----------------------------------|


                                                                             
----------------------------------||--------------------|-------------------|
----------------------------------||*-------------------|-------------------|
----------------------------------||---7----------------|--6----------------|
--5-5-5-5-5-5-5-5-5-5-5-5-5-5-5-5-||*-------------------|-------------------|
----------------------------------||--------------------|-------------------|


                                                                                
-------------------|-------------------|-------------------|-------------------|
-------------------|-------------------|-------------------|-------------------|
--7----------------|--6----------------|--9----------------|--8----------------|
-------------------|-------------------|-------------------|-------------------|
-------------------|-------------------|-------------------|-------------------|


                                                                              
-------------------|--------------------||-----------------------------------|
-------------------|-------------------*||*----------------------------------|
--9----------------|--8-----------------||---7----------7----5----------5----|
-------------------|-------------------*||*-------0--0------------0--0-------|
-------------------|--------------------||-----------------------------------|


                                                                      
----------------------------------|----------------------------------|
----------------------------------|----------------------------------|
--7----------7----3--2--3----6----|--7----------7----5----------5----|
-------0--0-----------------------|-------0--0------------0--0-------|
----------------------------------|----------------------------------|


                                   7x                                  
-----------------------------------||-------------------|------|------|
----------------------------------*||-------------------|------|------|
--7----------7----3--2--3----6-----||-------------------|------|------|
-------0--0-----------------------*||--0----------------|------|------|
-----------------------------------||-------------------|------|------|


                                                                          
-----------------------||------------------------|-----------------------|
-----------------------||*-----------------------|-----------------------|
----------10--9--10----||-------------10--9------|------------10--9------|
-----------------------||*--0----0---------------|--0----0---------------|
-----------------------||------------------------|-----------------------|


                                                                          
-----------------------|-------------------------|-----------------------|
-----------------------|-------------------------|-----------------------|
------------10--9------|------------10--9--10----|------------10--9------|
--0----0---------------|--0----0-----------------|--0----0---------------|
-----------------------|-------------------------|-----------------------|


                                                                            
-----------------------|-----------------------|--------------------------||
-----------------------|-----------------------|-------------------------*||
------------10--9------|------------10--9------|------------10--9--10-----||
--0----0---------------|--0----0---------------|--0----0-----------------*||
-----------------------|-----------------------|--------------------------||


                                                                         
------------------------|-----------------------|-----------------------|
*-----------------------|-----------------------|-----------------------|
-------------10--9------|------------10--9------|------------10--9------|
*--0----0---------------|--0----0---------------|--0----0---------------|
------------------------|-----------------------|-----------------------|


                                                                          
-------------------------|-----------------------|-----------------------|
-------------------------|-----------------------|-----------------------|
------------10--9--10----|------------10--9------|------------10--9------|
--0----0-----------------|--0----0---------------|--0----0---------------|
-------------------------|-----------------------|-----------------------|


                                                                            
-----------------------|--------------------------||-----------------------|
-----------------------|-------------------------*||-----------------------|
------------10--9------|------------10--9--10-----||------------10--9------|
--0----0---------------|--0----0-----------------*||--0----0---------------|
-----------------------|--------------------------||-----------------------|


                                                                          
-----------------------|-----------------------|-------------------------|
-----------------------|-----------------------|-------------------------|
------------10--9------|------------10--9------|------------10--9--10----|
--0----0---------------|--0----0---------------|--0----0-----------------|
-----------------------|-----------------------|-------------------------|

[ Tab from: http://www.guitartabs.cc/tabs/d/dimmu_borgir/relinquishment_of_spirit_and_flesh_btab.html ]
                                                                        
-----------------------|-----------------------|-----------------------|
-----------------------|-----------------------|-----------------------|
------------10--9------|------------10--9------|------------10--9------|
--0----0---------------|--0----0---------------|--0----0---------------|
-----------------------|-----------------------|-----------------------|


                                                                             
-------------------------|---------------------|------|---------------------|
-------------------------|---------------------|------|---------------------|
------------10--9--10----|--5------------------|------|--4------------------|
--0----0-----------------|---------------------|------|---------------------|
-------------------------|---------------------|------|---------------------|


                                                                           
------|---------------------|------|-------------------|------------------|
------|---------------------|------|-------------------|------------------|
------|--5------------------|------|--4----------------|------------------|
------|---------------------|------|-------------------|------------------|
------|---------------------|------|-------------------|------------------|


                                                              
|-----------------------------|------------------------------|
|*----------------------------|------------------------------|
|---5--------------------5----|--7--------8----7--------5----|
|*----------------------------|------------------------------|
|-----------------------------|------------------------------|


                                                                
----------------------------|---------------------------------||
----------------------------|--------------------------------*||
--4--------------------4----|--6--------6--7--9----7----6-----||
----------------------------|--------------------------------*||
----------------------------|---------------------------------||


                                                             
-----------------------------|------------------------------|
*----------------------------|------------------------------|
---5--------------------5----|--7--------8----7--------5----|
*----------------------------|------------------------------|
-----------------------------|------------------------------|


                                                                
----------------------------|---------------------------------||
----------------------------|--------------------------------*||
--4--------------------4----|--6--------6--7--9----7----6-----||
----------------------------|--------------------------------*||
----------------------------|---------------------------------||


                                                                              
-------------------|------------------|-------------------|------------------|
-------------------|------------------|-------------------|------------------|
--5----------------|------------------|--4----------------|------------------|
-------------------|------------------|-------------------|------------------|
-------------------|------------------|-------------------|------------------|


                                                                              
-------------------|------------------|-------------------|------------------|
-------------------|------------------|-------------------|------------------|
--5----------------|------------------|--4----------------|------------------|
-------------------|------------------|-------------------|------------------|
-------------------|------------------|-------------------|------------------|


                                                             
|--------------------|------------------|-------------------|
|*-------------------|------------------|-------------------|
|---5----------------|------------------|--4----------------|
|*-------------------|------------------|-------------------|
|--------------------|------------------|-------------------|


                   3x                                   
-------------------||----------------------------------|
------------------*||----------------------------------|
-------------------||----------------------------------|
------------------*||--0-0-0-0-0-0-0-0-0-0-0-0-0-0-0-0-|
-------------------||----------------------------------|


                                                                      
----------------------------------|----------------------------------|
----------------------------------|----------------------------------|
----------------------------------|----------------------------------|
--0-0-0-0-0-0-0-0-0-0-0-0-0-0-0-0-|--1-1-1-1-1-1-1-1-1-1-1-1-1-1-1-1-|
----------------------------------|----------------------------------|


                                                                      
----------------------------------|----------------------------------|
----------------------------------|----------------------------------|
----------------------------------|----------------------------------|
--5-5-5-5-5-5-5-5-1-1-1-1-3-3-3-3-|--0-0-0-0-0-0-0-0-0-0-0-0-0-0-0-0-|
----------------------------------|----------------------------------|


                                                                      
----------------------------------|----------------------------------|
----------------------------------|----------------------------------|
----------------------------------|----------------------------------|
--0-0-0-0-0-0-0-0-0-0-0-0-0-0-0-0-|--1-1-1-1-1-1-1-1-1-1-1-1-1-1-1-1-|
----------------------------------|----------------------------------|


                                                                      
----------------------------------|----------------------------------|
----------------------------------|----------------------------------|
----------------------------------|----------------------------------|
--5-5-5-5-5-5-5-5-5-5-5-5-5-5-5-5-|--0-0-0-0-0-0-0-0-0-0-0-0-0-0-0-0-|
----------------------------------|----------------------------------|


                                                                      
----------------------------------|----------------------------------|
----------------------------------|----------------------------------|
----------------------------------|----------------------------------|
--0-0-0-0-0-0-0-0-0-0-0-0-0-0-0-0-|--1-1-1-1-1-1-1-1-1-1-1-1-1-1-1-1-|
----------------------------------|----------------------------------|


                                                                      
----------------------------------|----------------------------------|
----------------------------------|----------------------------------|
----------------------------------|----------------------------------|
--5-5-5-5-5-5-5-5-1-1-1-1-3-3-3-3-|--0-0-0-0-0-0-0-0-0-0-0-0-0-0-0-0-|
----------------------------------|----------------------------------|


                                                                      
----------------------------------|----------------------------------|
----------------------------------|----------------------------------|
----------------------------------|----------------------------------|
--0-0-0-0-0-0-0-0-0-0-0-0-0-0-0-0-|--1-1-1-1-1-1-1-1-1-1-1-1-1-1-1-1-|
----------------------------------|----------------------------------|


                                                                           
----------------------------------|-------------------|-------------------|
----------------------------------|-------------------|-------------------|
----------------------------------|--7----------------|--6----------------|
--5-5-5-5-5-5-5-5-5-5-5-5-5-5-5-5-|-------------------|-------------------|
----------------------------------|-------------------|-------------------|


                                                                                
-------------------|-------------------|-------------------|-------------------|
-------------------|-------------------|-------------------|-------------------|
--7----------------|--6----------------|--9----------------|--8----------------|
-------------------|-------------------|-------------------|-------------------|
-------------------|-------------------|-------------------|-------------------|


                                                                                
-------------------|-------------------|-------------------|-------------------|
-------------------|-------------------|-------------------|-------------------|
--9----------------|--8----------------|--7----------------|--6----------------|
-------------------|-------------------|-------------------|-------------------|
-------------------|-------------------|-------------------|-------------------|


                                                                                
-------------------|-------------------|-------------------|-------------------|
-------------------|-------------------|-------------------|-------------------|
--7----------------|--6----------------|--9----------------|--8----------------|
-------------------|-------------------|-------------------|-------------------|
-------------------|-------------------|-------------------|-------------------|


                                                                                
-------------------|-------------------|-------------------|-------------------|
-------------------|-------------------|-------------------|-------------------|
--9----------------|--8----------------|--7----------------|--6----------------|
-------------------|-------------------|-------------------|-------------------|
-------------------|-------------------|-------------------|-------------------|


                                                                                
-------------------|-------------------|-------------------|-------------------|
-------------------|-------------------|-------------------|-------------------|
--7----------------|--6----------------|--9----------------|--8----------------|
-------------------|-------------------|-------------------|-------------------|
-------------------|-------------------|-------------------|-------------------|


                                                             
-------------------|--------------------|------------------||
-------------------|--------------------|------------------||
--9----------------|--8--------8--------|------------------||
-------------------|--------------------|------------------||
-------------------|--------------------|------------------||
Comments