Dimmu Borgir - Puritania Chords & Tabs

 

Puritania Chords & Tabs

Dimmu Borgir Chords & Tabs

Version: 1 Type: Bass Tab 0 ratings
1 star 2 stars 3 stars 4 stars 5 stars
comments

Puritania Bass Tab

   
Tuning: (C#, E, A, D) 


D |-----------------------------|-----------------------------|
A |-----------------------------|-----------------------------|
E |-----------------------------|-----------------------------|
C#|--222222222--2-2--2-2--3-3-3-|--222222222--2-2--2-2--3-3-3-|


D |-----------------------------|-----------------------------|
A |-----------------------------|-----------------------------|
E |-----------------------------|-----------------------------|
C#|--222222222--2-2--2-2--3-3-3-|--222222222--2-2--2-2--3-3-3-|


D |--*R*--|----------------------------|
A |--*E*--|----------------------------|
E |--*S*--|----------------------------|
C#|--*T*--|--222222222--2-2--2-2--3-3--|

D |-----------------------------|-----------------------------|
A |-----------------------------|-----------------------------|
E |-----------------------------|-----------------------------|
C#|--222222222--2-2--2-2--3-3-3-|--222222222--2-2--2-2--3-3-3-|

D |-----------------------------|--*R*--|
A |-----------------------------|--*E*--|
E |-----------------------------|--*S*--|
C#|--222222222--2-2--2-2--3-3-3-|--*T*--|

D |-----------------------------|-----------------------------|
A |-----------------------------|-----------------------------|
E |-----------------------------|-----------------------------|
C#|--222222222--2-2--2-2--3-3-3-|--222222222--2-2--2-2--3-3-3-|

D |-----------------------------|-----------------------------|
A |-----------------------------|-----------------------------|
E |-----------------------------|-----------------------------|
C#|--222222222--2-2--2-2--3-3-3-|--222222222--2-2--2-2--3-3-3-|

D |-----------------------|--------------------|
A |-----------------------|--------------------|
E |-----------------------|--------------------|
C#|--2-2--2-2--2-2--2-2/1-|--1-1--1-1--9--8----|

D |-----------------------|--------------------|
A |-----------------------|--------------------|
E |-----------------------|--------------------|
C#|--2-2--2-2--2-2--2-2/1-|--1-1--1-1--9--8----|

D |-----------------------|--------------------|
A |-----------------------|--------------------|
E |-----------------------|--------------------|
C#|--2-2--2-2--2-2--2-2/1-|--1-1--1-1--9--8----|

D |-----------------------|--------------------|
A |-----------------------|--------------------|
E |-----------------------|--------------------|
C#|--2-2--2-2--2-2--2-2/1-|--1-1--1-1--9--8----|

[ Tab from: http://www.guitartabs.cc/tabs/d/dimmu_borgir/puritania_btab.html ]
D |------------------------------|----------------------------|
A |------------------------------|----------------------------|
E |------------------------------|----------------------------|
C#|--222222222--2-2--2-2--3-3-3-|--222222222--2-2--2-2--3-3-3-|


D |-----------------------------|-----------------------------|
A |-----------------------------|-----------------------------|
E |-----------------------------|-----------------------------|
C#|--222222222--2-2--2-2--3-3-3-|--222222222--2-2--2-2--3-3-3-|


|--*R*--|-----------------------------|
|--*E*--|-----------------------------|
|--*S*--|-----------------------------|
|--*T*--|--222222222--2-2--2-2--3-3-3-|

|-----------------------------|-----------------------------|
|-----------------------------|-----------------------------|
|-----------------------------|-----------------------------|
|--222222222--2-2--2-2--3-3-3-|--222222222--2-2--2-2--3-3-3-|

|-----------------------------|--*R*--|
|-----------------------------|--*E*--|
|-----------------------------|--*S*--|
|--222222222--2-2--2-2--3-3-3-|--*T*--|

|-----------------------------|-----------------------------|
|-----------------------------|-----------------------------|
|-----------------------------|-----------------------------|
|--222222222--2-2--2-2--3-3-3-|--222222222--2-2--2-2--3-3-3-|

|-----------------------------|-----------------------------|
|-----------------------------|-----------------------------|
|-----------------------------|-----------------------------|
|--222222222--2-2--2-2--3-3-3-|--222222222--2-2--2-2--3-3-3-|

|-----------------------|--------------------|
|-----------------------|--------------------|
|-----------------------|--------------------|
|--2-2--2-2--2-2--2-2/1-|--1-1--1-1--9--8----|

|-----------------------|--------------------|
|-----------------------|--------------------|
|-----------------------|--------------------|
|--2-2--2-2--2-2--2-2/1-|--1-1--1-1--9--8----|

|-----------------------|--------------------|
|-----------------------|--------------------|
|-----------------------|--------------------|
|--2-2--2-2--2-2--2-2/1-|--1-1--1-1--9--8----|

|-----------------------|--------------------|
|-----------------------|--------------------|
|-----------------------|--------------------|
|--2-2--2-2--2-2--2-2/1-|--1-1--1-1--9--8----|

|-----------------------------|-----------------------------|
|-----------------------------|-----------------------------|
|-----------------------------|-----------------------------|
|--222222222--2-2--2-2--3-3-3-|--222222222--2-2--2-2--3-3-3-|

|-----------------------------|-----------------------------|
|-----------------------------|-----------------------------|
|-----------------------------|-----------------------------|
|--222222222--2-2--2-2--3-3-3-|--222222222--2-2--2-2--3-3-3-|
Comments