Dimmu Borgir - Progenies Of The Great Chords & Tabs

 

Progenies Of The Great Chords & Tabs

Dimmu Borgir Chords & Tabs

Version: 1 Type: Tab 1 rating
1 star 2 stars 3 stars 4 stars 5 stars
comments

Progenies Of The Great Tab

   
16x)
E-------------------|
B-------------------|
G-8-8-8-8-----------|
D-8-8-8-8-----------|
A-6-6-6-6-----------|
E-6-6-6-6-----------|



verse

E---------------------------------------------------|
B---------------------------------------------------|
G---------------------------------------------------|
D---------------------------------------------------|
A-4-------------------------------7-----------------|
E-2-222-222-222-222-222-222-222-225-555-555-555-555-|



E---------------------------------------------------|
B---------------------------------------------------|
G---------------------------------------------------|
D---------------------------------------------------|
A--15--15-15-15-14--14-14-14-12--12-12-12-11--11-11-|
E-/13--13-13-13\12--12-12-12\10--10-10-10\9---9--9--|



E---------------------------------------------------|
B---------------------------------------------------|
G---------------------------------------------------|
D---------------------------------------------------|
A-4-------------------------------8-----------------|
E-2-222-222-222-222-222-222-222-226-666-666-666-666-|



E---------------------------------------------------|
B---------------------------------------------------|
G---------------------------------------------------|
D---------------------------------------------------|
A--11--11-11-11-10--10-10-10-8--8-8-8\7--7-7--------|
E-/9---9--9--9-\8---8--8--8-\6--6-6-6-5--5-5--------|



E---------------------------------------------------|
B---------------------------------------------------|
G---------------------------------------------------|
D---------------------------------------------------|
A-4-------------------------------7-----------------|
E-2-222-222-222-222-222-222-222-225-555-555-555-555-|



E---------------------------------------------------|
B---------------------------------------------------|
G---------------------------------------------------|
D---------------------------------------------------|
A--15--15-15-15-14--14-14-14-12--12-12-12-11--11-11-|
E-/13--13-13-13\12--12-12-12\10--10-10-10\9---9--9--|



E---------------------------------------------------|
B---------------------------------------------------|
G---------------------------------------------------|
D---------------------------------------------------|
A-4-------------------------------8-------8-------8-|
E-2-222-222-222-222-222-222-222-226-----666-----666-|



E---------------------------------------------------|
B---------------------------------------------------|
G---------------------------------------------------|
D---------------------------------------------------|
A---8---8---8---------------------------------------|
E-666-666-666---------------------------------------|



E---------------------------------------------------|
B---------------------------------------------------|
G---------------------------------------------------|
D---------------------------------------------------|
A-4-------------------------------7-----------------|
E-2222222222222222222222222222222255555555555555555-|



E---------------------------------------------------|
B---------------------------------------------------|
G---------------------------------------------------|
D---------------------------------------------------|
A--15--15-15-15-14--14-14-14-12--12-12-12-11--11-11-|
E-/13--13-13-13\12--12-12-12\10--10-10-10\9---9--9--|



E---------------------------------------------------|
B---------------------------------------------------|
G---------------------------------------------------|
D---------------------------------------------------|
A-4-------------------------------8-----------------|
E-2222222222222222222222222222222266666666666666666-|



E---------------------------------------------------|
B---------------------------------------------------|
G---------------------------------------------------|
D---------------------------------------------------|
A--11--11-11-11-10--10-10-10-8--8-8-8\7--7-7--------|
E-/9---9--9--9-\8---8--8--8-\6--6-6-6-5--5-5--------|



E---------------------------------------------------|
B---------------------------------------------------|
G---------------------------------------------------|
D---------------------------------------------------|
A-4-------------------------------7-----------------|
E-2222222222222222222222222222222255555555555555555-|



E---------------------------------------------------|
B---------------------------------------------------|
G---------------------------------------------------|
D---------------------------------------------------|
A--15--15-15-15-14--14-14-14-12--12-12-12-11--11-11-|
E-/13--13-13-13\12--12-12-12\10--10-10-10\9---9--9--|



E---------------------------------------------------|
B---------------------------------------------------|
G---------------------------------------------------|
D---------------------------------------------------|
A-4-------------------------------8-------8-------8-|
E-222222222222222222222222222222226-----666-----666-|



E---------------------------------------------------|
B---------------------------------------------------|
G---------------------------------------------------|
D---------------------------------------------------|
A---8---8---8---------------------------------------|
E-666-666-666---------------------------------------|



(16x)
E-------------------|
B-------------------|
G-8-8-8-8-----------|
D-8-8-8-8-----------|
A-6-6-6-6-----------|
E-6-6-6-6-----------|



E---------------------------------------------------|
B---------------------------------------------------|
G---------------------------------------------------|
D---------------------------------------------------|
A-4-------------------------------7-----------------|
E-2222222222222222222222222222222255555555555555555-|



E---------------------------------------------------|
B---------------------------------------------------|
G---------------------------------------------------|
D---------------------------------------------------|
A--15--15-15-15-14--14-14-14-12--12-12-12-11--11-11-|
E-/13--13-13-13\12--12-12-12\10--10-10-10\9---9--9--|



E---------------------------------------------------|
B---------------------------------------------------|
G---------------------------------------------------|
D---------------------------------------------------|
A-4-------------------------------8-----------------|
E-2222222222222222222222222222222266666666666666666-|


[ Tab from: http://www.guitartabs.cc/tabs/d/dimmu_borgir/progenies_of_the_great_tab.html ]
E---------------------------------------------------|
B---------------------------------------------------|
G---------------------------------------------------|
D---------------------------------------------------|
A--11--11-11-11-10--10-10-10-8--8-8-8\7--7-7--------|
E-/9---9--9--9-\8---8--8--8-\6--6-6-6-5--5-5--------|



E---------------------------------------------------|
B---------------------------------------------------|
G---------------------------------------------------|
D---------------------------------------------------|
A-4-------------------------------7-----------------|
E-2222222222222222222222222222222255555555555555555-|



E---------------------------------------------------|
B---------------------------------------------------|
G---------------------------------------------------|
D---------------------------------------------------|
A--15--15-15-15-14--14-14-14-12--12-12-12-11--11-11-|
E-/13--13-13-13\12--12-12-12\10--10-10-10\9---9--9--|



E---------------------------------------------------|
B---------------------------------------------------|
G---------------------------------------------------|
D---------------------------------------------------|
A-4-------------------------------8-------8-------8-|
E-222222222222222222222222222222226-----666-----666-|



E---------------------------------------------------|
B---------------------------------------------------|
G---------------------------------------------------|
D---------------------------------------------------|
A---8---8---8---------------------------------------|
E-666-666-666---------------------------------------|



(you'll have to listen closely to the cd
for the exact timing here on out)

E---------------------------------------------------|
B---------------------------------------------------|
G-6~-------4-6-7-6-7-6-4~---------------------------|
D-6~-------4-6-7-6-7-6-4~---------------------------|
A-4~-------2-4-5-4-5-4-2~---------------------------|
E-4~-------2-4-5-4-5-4-2~---------------------------|



E---------------------------------------------------|
B---------------------------------------------------|
G-6~-------4-6-7-6-7-6-11~-----12~------------------|
D-6~-------4-6-7-6-7-6-11~-----12~------------------|
A-4~-------2-4-5-4-5-4-9~------10~------------------|
E-4~-------2-4-5-4-5-4-9~------10~------------------|



E---------------------------------------------------|
B---------------------------------------------------|
G-6~-------4-6-7-6-7-6-4~---------------------------|
D-6~-------4-6-7-6-7-6-4~---------------------------|
A-4~-------2-4-5-4-5-4-2~---------------------------|
E-4~-------2-4-5-4-5-4-2~---------------------------|



E---------------------------------------------------|
B---------------------------------------------------|
G-6~-------4-6-7-6-7-6-11~-----12~------------------|
D-6~-------4-6-7-6-7-6-11~-----12~------------------|
A-4~-------2-4-5-4-5-4-9~------10~------------------|
E-4~-------2-4-5-4-5-4-9~------10~------------------|



well, since he uses a 7 string, the c# and b would be an octave lower

E--------------------------------------------------------|
B--------------------------------------------------------|
G--------------------------------------------------------|
D--------------------------------------------------------|
A-444444444444--444444444444--222222222222--222222222222-|
E--------------------------------------------------------|



E--------------------------------------------------------|
B--------------------------------------------------------|
G--------------------------------------------------------|
D--------------------------------------------------------|
A-444444444444--444444444444-----------------------------|
E-----------------------------222222222222--333333333333-|



E---------------------------------------------------------|
B---------------------------------------------------------|
G---------------------------------------------------------|
D-6-6-6---------------6-66--6---------------4-4-4---------|
A-4-4-4--444444444444-4-44--4-444444444444--2-2-2---------|
E-4-4-4---------------4-44--4---------------2-2-2---------|



E---------------------------------------------------------|
B---------------------------------------------------------|
G---------------------------------------------------------|
D---------------4-44--4-------------------6-6-6-----------|
A-222222222222--2-22--2-2222222222222222--4-4-4-----------|
E---------------2-22--2-------------------4-4-4-----------|



E---------------------------------------------------------|
B---------------------------------------------------------|
G---------------------------------------------------------|
D--------------6-66--6---------------4-4-4----------------|
A-444444444444-4-44--4-444444444444--2-2-2----------------|
E--------------4-44--4---------------2-2-2--222222222222--|



E---------------------------------------------------------|
B---------------------------------------------------------|
G---------------------------------------------------------|
D-5-55--5-------------------------------------------------|
A-3-33--3-------------------------------------------------|
E-3-33--3-333333333333------------------------------------|


.........Orchestra interlude....



E--------------------------------------------------------|
B--------------------------------------------------------|
G--------------------------------------------------------|
D-666666666666666666666666666444444444444444444444444444-|
A-444444444444444444444444444222222222222222222222222222-|
E-444444444444444444444444444222222222222222222222222222-|



E--------------------------------------------------------|
B--------------------------------------------------------|
G--------------------------------------------------------|
D-666666666666666666666666666444444444444444444444444444-|
A-444444444444444444444444444222222222222222222222222222-|
E-444444444444444444444444444222222222222222222222222222-|



E-------------------------------------------------------------------------|
B-------------------------------------------------------------------------|
G-------------------------------------------------------------------------|
D-6--6--6--6--6-6--6-6--6--6--6-6--6-6-4--4--4--4--4-4--4-4--4--4--4-4--4-|
A-4--4--4--4--4-4--4-4--4--4--4-4--4-4-2--2--2--2--2-2--2-2--2--2--2-2--2-|
E-4--4--4--4--4-4--4-4--4--4--4-4--4-4-2--2--2--2--2-2--2-2--2--2--2-2--2-|



E-------------------------------------------------------------------------|
B-------------------------------------------------------------------------|
G-------------------------------------------------------------------------|
D-6--6--6--6--6-6--6-6--6--6--6-6--6-6-4--4--4----4--4--4-----------------|
A-4--4--4--4--4-4--4-4--4--4--4-4--4-4-2--2--2----2--2--2-----------------|
E-4--4--4--4--4-4--4-4--4--4--4-4--4-4-2--2--2----2--2--2-----------------|



(16x)
E-------------------|
B-------------------|
G-8-8-8-8-----------|
D-8-8-8-8-----------|
A-6-6-6-6-----------|
E-6-6-6-6-----------|

Comments