Dimmu Borgir - Mourning Palace Chords & Tabs

 

Mourning Palace Chords & Tabs

Dimmu Borgir Chords & Tabs

Version: 3 Type: Tab

Mourning Palace Tab

Band: Dimmu Borgir
Song: Mourning Palace
Tabber: We_Wont_Die

Tuning: Standard (EADGBe)

X - palm mute

Intro (Keyboard)
|--------2--------2----------2-------------|
|--------2--------2----------2-------------|
|--------2--------2----------2-------------|
|----4----------4--------4-----------------|
|---------------------------------2-5-4-7--|
|--2---2------2---2----2---2---------------|

|--------2--------2----------2--|
|--------2--------2----------2--|
|--------2--------2----------2--|
|----4----------4--------4------|
|-------------------------------|
|--2---2------2---2----2---2----|

Guitar
|-----------|
|-----------|
|-----------|
|--4-7-6-9--|
|--2-5-4-7--|
|-----------|

Verse
|---------------------------------------|
|---------------------------------------|
|---------------------------------------|
|------------------------------4-7-6-9--|
|--44444444444444444444444444--2-5-4-7--|
|--22222222222222222222222222-----------|
   xxxxxxxxxxxxxxxxxxxxxxxxxx

Verse Pt.2
|-------------------------------------------------------------|
|-------------------------------------------------------------|
|-------------------------------------------------------------|
|------------------------------999999999999-8-----------------|
|--44444444444444444444444444--777777777777-6--9999999999999--|
|--22222222222222222222222222------------------7777777777777--|
   xxxxxxxxxxxxxxxxxxxxxxxxxx  xxxxxxxxxxxx x  xxxxxxxxxxxxx

|--------------------------------------------------------------|
|--------------------------------------------------------------|
|----------------------------------------------------------11--|
|--------------------------------------------------------------|
|--44444444444444444444444444--777777777977776666--------------|
|--22222222222222222222222222--------------------777777777-----|
   xxxxxxxxxxxxxxxxxxxxxxxxxx  
[ Tab from: http://www.guitartabs.cc/tabs/d/dimmu_borgir/mourning_palace_tab_ver_3.html ]
Other Riff
|---------------------0000000000000000--|
|---------------------8888777788887777--|
|--5555444455554444---9999999999999999--|
|--7777777777777777---9999999999999999--|
|--0000000000000000---7777777777777777--|
|-------------------0-------------------|

Other Riff 2
|-----------------------------|
|-----------------------------|
|-----------------------------|
|----9--8--9--8--9--8--5-6-8--|
|----------------------3-4-6--|
|--00-00-00-00-00-00-0--------|
   xx xx xx xx xx xx x

|---------------------|
|---------------------|
|---------------------|
|----9--8--9---5-6-8--|
|--------------3-4-6--|
|--00-00-00-00--------|
   xx xx xx xx

Bridge
|--------------------------------------------------------|
|--------------------------------------------------------|
|--------------------------------------------------------|
|------4444----555544442222--------------------55554444--|Guitar 1
|--2222----2222----------------5555--------2222----------|
|--------------------------3333----33330000--------------|
|                                                        |
|--------------------------------------------------------|
|--------------------------------------------------------|
|--------------------------------------------------------|
|--------------------------------------------------------|Guitar 2
|--------------------------------------------------------|
|--7777777777777777777777773333333333330000000000000000--|

|-------------------------------------|
|-------------------------------------|
|----------------4--------------------|
|---4-4542---4-45----4-4542------254--|
|--2-2------2-2-----2-2-------025-----|
|----------------------------3--------|

Outro
|--------------------------------------------------------|
|--------------------------------------------------------|
|--------------------------------------------------------|
|--------------------------------------------------------|
|--9999999999999999999999995555555555552222222222222222--|
|--7777777777777777777777773333333333330000000000000000--|

|-----|
|-----|
|-----|
|-----|
|--9--|
|--7--|