Dimmu Borgir - Mourning Palace Chords & Tabs

 

Mourning Palace Chords & Tabs

Dimmu Borgir Chords & Tabs

Version: 4 Type: Bass Tab 0 ratings
1 star 2 stars 3 stars 4 stars 5 stars
comments

Mourning Palace Bass Tab

|-----------------------|
|---4--7--6--9----------|
|---2--5--4--7----------|
|-----------------------|


|----------------------------------------------------------|
|----------------------------------------------4--7--6--9--|
|--4-------------------------------------------2--5--4--7--|
|--2--22222--22222--22222--22222--22222--2222--------------|

|-------------------------|-------------------------|
|-------------------------|-------------------------|
|-------------------------|-------------------------|
|-0h2--2-2-2-2-2--2-2-2-2-|-0h2--2-2-2-2-2--2-2-2-2-|


|-----------------------|--------------------------|
|-----------------------|--------------------------|
|-7--7-7-7-7-7--7-7-6--|---------------------------|
|-0---------------------|-7--7-7-7-7-7--7-7-7-7----|


|-------------------------|-------------------------|
|-------------------------|-------------------------|
|-------------------------|-------------------------|
|-0h2--2-2-2-2-2--2-2-2-2-|-0h2--2-2-2-2-2--2-2-2-2-|


|--------------------|--------------------|
|--------------------|--------------------|
|-7--7-7-7--9--7-----|--------------------|
|-0---------------9--|-7--7-7-7--7--5--4--|

5X
|-------------------7-9-7-5-2-|---------------------------|
|-----------------------------|---------------------------|
|--0--000--0-000--------------|-7-777-------7-777---------|
|-----------------------------|-------0-000-------0-000---|

1X
|-------------7-9-7-5-2-|
|-----------------------|
|-0-000-0-000-----------|
|-----------------------|

[ Tab from: http://www.guitartabs.cc/tabs/d/dimmu_borgir/mourning_palace_btab_ver_4.html ]
|--------------|
|--------------|
|--------------|
|--3-3-3-5--6--|

4X
|----------------------------|--------------------------|
|----------------------------|--------------------------|
|------3-----2------3-----2--|------3-----2-------------|
|-0-3----0-2---0-3----0-2----|-0-3----0-2---3-3-3-5--6--|

4X
|----------------------------------|-----------------------------------|
|----------------------------------|-----------------------------------|
|-----2-----1------2---------------|------2-----1------2---------------|
|-0-3---0-2---0-3----0-2-3-3-3-5-6-|-0-3----0-2---0-3----0-2-3-3-3-6-5-|

4X
|------------------------|------------------------|--------------------------|7-975-2-|
|------------------------|------------------------|--------------------------|--------|
|--7--7-7-7-7------------|--7--7-7-7-7------------|-0---0-0-0-0-0---0-0-0-0--|--------|
|-------------0--0-0-0-0-|-------------0--0-0-0-0-|--------------------------|--------|

1X
|-------------|-------------|----------|
|-4---------3-|-4-----------|----------|
|-2---------1-|-2-----------|-5--------|
|-------------|-------------|-3--------|

6X
|------------------|----------|----------|
|------------------|----------|----------|
|-2222222222222222-|----------|----------|
|------------------|-33333333-|-00000000-|

4X
|--------------------------------------|
|--------------------------------------|
|2---2-2---2---2-2---2---2-2-----------|
|----------------------------3---3-3-3-|

4X


|----------------------|
|----------------------|
|--8--9----------------|
|--6--7----------------|
Comments