Dimmu Borgir - Metal Heart Chords & Tabs

 

Metal Heart Chords & Tabs

Dimmu Borgir Chords & Tabs

Version: 2 Type: Tab 0 ratings
1 star 2 stars 3 stars 4 stars 5 stars
comments

Metal Heart Tab

   
Band:  Dimmu Borgir
Album: Godless Savage Garden 
Song:  Metal Heart (Accept cover)

Copyright © 1998
Version 1.0 – 19.03.03

Transcribed By: Andreas Nore
Email:          Nore666@hotmail.com


.  - Palm mute           /  - slide up to
\  - Slide down to       ~  - vibrato
H  - hammer on           b  - Bend
P  - pull off             -> Suffixes for bend
T  - tap                 f  - full bend    h - half bend
Ph - pinched harmonic    q  - quarter bend t - tap bend
*  - See comment         ^  - Hold bend    r release bend
X  - Stuccatto           ~  - vibrato bend
,  - Slight palm mute    () - ghost note, sustained note
"  - Tremolo note        <> - Trill

Tuning: E A D G B E

Intro 2x.
|-------------------------------------------------------------------|
|-------------------------------------------------------------------|
|*--4~-3-------------4-4-3-3h4p3-------------2----------------------|
|*-------5-4-2~--4-5--------------5-4-2~---4---5-4--2-1-2-4-5-2-----|
|-------------------------------------------------------------------|
|-------------------------------------------------------------------|

|-------------------------------------------------------------------|
|-------------------------------------------------------------------|
|-4-4-4-3----------------------------------------------------------*|
|---------5-2-4~---------------------------------------------------*|
|-------------------------------------------------------------------|
|-------------------------------------------------------------------|

Riff 1. 2x
|-------------------------------------------------------------------|
|-------------------------------------------------------------------|
|-------------------------------------------------------------------|
|--5-5-5-5-5-5--5-5-5-5-5-6--6-6-6-6-6-6--6-6-6--6-6----------------|
|--3-3-3-3-3-3--3-3-3-3-3-3--3-3-3-3-3-3--3-3-3--3-3----------------|
|-------------------------------------------------------------------|

|-------------------------------------------------------------------|
|-------------------------------------------------------------------|
|-------------------------------------------------------------------|
|-5--5-5-5-5-5-5--5-5-5-5-5-5--5-5---6~---5-------------------------|
|-3--3-3-3-3-3-3--3-3-3-3-3-3--3-3---3~---3-------------------------|
|-------------------------------------------------------------------|

Verse 1.
|-------------------------------------------------------------------|
|-------------------------------------------------------------------|
|-------------------------------------------------------------------|
|--5-5-5-5-5-5--5-5-5-5-5-6--6-6-6-6-6-6--6-6-6--6-6----------------|
|--3-3-3-3-3-3--3-3-3-3-3-3--3-3-3-3-3-3--3-3-3--3-3----------------|
|-------------------------------------------------------------------|

|-------------------------------------------------------------------|
|-------------------------------------------------------------------|
|-------------------------------------------------------------------|
|-5--5-5-5-5-5-5--5-5-5-5-5-5---------------------------------------|
|-3--3-3-3-3-3-3--3-3-3-3-3-3--5-6~---5-----------------------------|
|------------------------------3-4~---3-----------------------------|

|-------------------------------------------------------------------|
|-------------------------------------------------------------------|
|-------------------------------------------------------------------|
|-5--5-5-5-5-5-5--6-6-6-6-6---5-----8-------------------------------|
|-3--3-3-3-3-3-3--3-3-3-3-3---3-6---6-8-----------------------------|
|-------------------------------4-----6-----------------------------|


|-------------------------------------------------------------------|
|-------------------------------------------------------------------|
|-------------------------------------------------------------------|
|-5--5-5-5-5-5-5--6-6-6-6-6---5-------------------------------------|
|-3--3-3-3-3-3-3--3-3-3-3-3---3-6~---5------------------------------|
|-------------------------------4~---3------------------------------|

Chorus 2x

|-------------------------------------------------------------------|
|-------------------------------------------------------------------|
|---5-4-5------------5-4-5------------9-7-10-9--7-------------------|
|---7-5-7------------7-5-7-----------10-9-12-10-9-------------------|
|-------------------------------------------------------5-----------|
|----------0-0-0-0-0--------0-0-0-0-0-------------------3-----------|
           . . . . .        . . . . .

Verse 2. 

Repeat riff 1. 1x

|-------------------------------------------------------------------|
|-------------------------------------------------------------------|
|-------------------------------------------------------------------|
|-5--5-5-5-5-5-5--6-6-6-6-6---5-----8-------------------------------|
|-3--3-3-3-3-3-3--3-3-3-3-3---3-6---6-8-----------------------------|
|-------------------------------4-----6-----------------------------|

|-------------------------------------------------------------------|
|-------------------------------------------------------------------|
|-------------------------------------------------------------------|
|-5--5-5-5-5-5-5--6-6-6-6-6---5-------------------------------------|
|-3--3-3-3-3-3-3--3-3-3-3-3---3-6~---5------------------------------|
|-------------------------------4~---3------------------------------|

Chorus 2x

Solo:

|-------------------------------------------------------------------|
|-------------------------------------------------------------------|
|-------------------------------------------------------------------|
|------------------7---9--10----------------------------------------|
|-7-7-----7-9-10----------------------------------------------------|
|-------------------------------------------------------------------|

|-------------------------------------------------------------------|
|-------------------------------------------------------------------|
|-8-9-11-11-9-8-9-9-9-9-9-9-9-9-9-9-9-9-9-9-9-9-9-9-9-9-------------|
|-------------------------------------------------------------------|
|-------------------------------------------------------------------|
|-------------------------------------------------------------------|

|-------------------------------------------------------------------|
|-----------------------------------8-10-10b--10-8-7----------------|
|-9p8------9p8-----9p8-----8-9---------------------------------|
|------10------10------10--------------------------------------|
|-------------------------------------------------------------------|
|-------------------------------------------------------------------|


|----8p7----8p7-----8p7------7-8-10--8-7-8-7---------7--------------|
|--------10-----10-------10-----------------------10---10-8-10-7-8-7|
|-9-----------------------------------------------------------------|
|-------------------------------------------------------------------|
|-------------------------------------------------------------------|
|-------------------------------------------------------------------|

|-------------------------------------------------------------------|
|--------------15br~~~----------------------------------------------|
|-9----12br-------------12-12-10-12----10---------------------------|
|-----------------------------------12-----13---10~--------10-------|
|----------------------------------------------------10-------------|
|-------------------------------------------------------------------|

|-------------------------------------------------------------------|
|-------------------------------------------------------------------|
|----------------------------------------12-10-12-----10------------|
|-12--12br--10------------------------------------12-----13-10~-----|
|---------------------------------10/----------------------------10-|
|-------------------------------------------------------------------|
[ Tab from: http://www.guitartabs.cc/tabs/d/dimmu_borgir/metal_heart_tab_ver_2.html ]
|-------------------------------------------------------------------|
|-------------------------------------------------------------------|
|---------------------------------------10b--10b--12b---10---10br---|
|-12br~—----------------------10-12-13------------------------------|
|-------------------------------------------------------------------|
|-------------------------------------------------------------------|

|-------------------------------------------------------------------|
|-------------------------------------------------------------------|
|-8h10p8h10p8h10p8h10p8h10p8h10p8h10p8h10-p-8/7h8p7/5h7p5/4h5p4-----|
|----------------------------------------------------------------7--|
|-------------------------------------------------------------------|
|-------------------------------------------------------------------|

|-----------------------------12----------------------12------------|
|--------------------------------13----------12-13-15----13---------|
|-4h5p4---5p4---4h5p4---------------14----14----------------14------|
|-------------7-------7-5~-------------14----------------------14---|
|-------------------------------------------------------------------|
|-------------------------------------------------------------------|


|-------------13----------------------13--------------------13------|
|----12-13-15----15----------------15----15---------------15--------|
|-14---------------16----16----16----------16----16----16-----------|
|---------------------15----15----------------15----15--------------|
|-------------------------------------------------------------------|
|-------------------------------------------------------------------|

|-12----------------------12---------------10-----------------------|
|----13----------12-13-15----13---------12----12----------10-12-13--|
|-------14----14----------------14---14----------12----12-----------|
|----------14---------------------14----------------12--------------|
|-------------------------------------------------------------------|
|-------------------------------------------------------------------|

|-10-13----------10-12----------10-13----------10-12----------------|
|--------10-12----------12-13-----------10-12----------10-13--------|
|-------------------------------------------------------------------|
|-------------------------------------------------------------------|
|-------------------------------------------------------------------|
|-------------------------------------------------------------------|

Speed this up and listen to the timing… start machine gunning after a while… then ->



|-------------------------------------------------------------------|
|-13p12p10-13p12p10-13p12p10-13p12p10-15p13p12-15p13p12-17p15p13----|
|-------------------------------------------------------------------|
|-------------------------------------------------------------------|
|-------------------------------------------------------------------|
|-------------------------------------------------------------------|

|-------------------------------------------------------------------|
|-17p15p13-18p17p15-18p17-20-18-16----------------------------------|
|----------------------------------19-17-16-------------------------|
|-------------------------------------------18-17-15----------------|
|----------------------------------------------------18-17-15-14----|
|----------------------------------------------------------------17-|

|-------------------------------------------------------------------|
|-------------------------------------------------------------------|
|-------------------------------------------------------------------|
|---------------------------16-17-19-17-----------------------------|
|---------------14-15-17-18-----------------------------------------|
|-15-14---15-17-----------------------------------------------------|

|---------12-15-12---------------12-15-12----------------------------|
|------13---------13----------13----------13----------13-------------|
|---12---------------12----12----------------12----12---------------|
|-14--------------------13----------------------14------------------|
|-------------------------------------------------------------------|
|-------------------------------------------------------------------|

|-12-15-12----------------12-15-12----------------------------------|
|----------13----------13----------13-------------------------------|
|-------------12----12----------------12----------------------------|
|----------------13-------------------------------------------------|
|-------------------------------------------------------------------|
|-------------------------------------------------------------------|

|-------------------------------------------------------------------|
|-------------------------------------------------------------------|
|-11-12-11-12-11-12-11-12-11-12-11-12-11-12-11-12-11-12-11-12-11-12-|
|-------------------------------------------------------------------|
|-------------------------------------------------------------------|
|-------------------------------------------------------------------|

|-------------------------------------------------------------------|
|-------------------------------------------------------------------|
|-11-12-11-12-11-12-11-12-11-12~--------10--------------------------|
|------------------------------------12----13--10~---10-------------|
|-------------------------------------------------10----------------|
|-------------------------------------------------------------------|

               <- There’s some harmonics here but you got to figure that out yourself… 

|-------------------------------------------------------------------|
|-------------------------------------------------------------------|
|-----------------------------------------10-10b-12b--10------------|
|---------12br--10---------12—13------------------------------------|
|-------------------------------------------------------------------|
|-------------------------------------------------------------------|

|-------------------------------------------------------------------|
|-------------------------------------------------------------------|
|-10b-10p8/7h8p7/5h7p5/4h5p4---4h-----------------------------------|
|----------------------------7---7-4h---4h5p4h5p4h5p4h5p4h5p4-------|
|-------------------------------------------------------------------|
|-------------------------------------------------------------------|




|-------------------------------------------------------------------|
|----------------------------------16p15p13h16p15p13h16p15p13h16p13-|
|-8p7h8p7h8p7h8p7h8p7h8p7h8p7h8p7-----------------------------------|
|-------------------------------------------------------------------|
|-------------------------------------------------------------------|
|-------------------------------------------------------------------|

|-----------------15---18—18bf-------------------------------------|
|-16p15p13---18----------------------------------------------------|
|------------------------------------------------------------------|
|------------------------------------------------------------------|
|------------------------------------------------------------------|
|------------------------------------------------------------------|

Chorus 4x and then you rest on the G5 power chord    A|--5----|
                                                     E|--3----|  

While guitar 1 goes like this:

|------------------------------------------------------------------|
|------------------------------------------------------------------|
|---12-11-12-11-12-11-12-11-12-11bfr-------------------------------|
|------------------------------------------------------------------|
|------------------------------------------------------------------|
|------------------------------------------------------------------|

Ending goes like this

|------------------------------------------------------------------|
|------------------------------------------------------------------|
|------------------------------------------------------------------|
|------------------------------------------------------------------|
|-------7--5--7\---------------------------------------------------|
|-------5--5--5\---------------------------------------------------|


If you find any mistakes just contact me, i would be happy to here them.. :)good luck...
Comments