Dimmu Borgir - Masses For The New Messiah Chords & Tabs

 

Masses For The New Messiah Chords & Tabs

Dimmu Borgir Chords & Tabs

Version: 1 Type: Bass Tab 0 ratings
1 star 2 stars 3 stars 4 stars 5 stars
comments

Masses For The New Messiah Bass Tab

tune down

F||------------------|------------------|------------------|------------------|
C||------------------|------------------|------------------|------------------|
G||------------------|------------------|------------------|------------------|
D||------------------|------------------|------------------|------------------|
A||------------------|------------------|------------------|------------------|


                                                                            
------------------|------------------|------------------|------------------|
------------------|------------------|------------------|------------------|
------------------|------------------|------------------|------------------|
------------------|------------------|------------------|------------------|
------------------|------------------|------------------|------------------|


                                                                      
-------------------|--------------------|----------------------------|
--2----------------|--------------------|----------------------------|
-------------------|--3--------2--------|--2--2-2-2--2--2--2-2-2--2--|
-------------------|--------------------|----------------------------|
-------------------|--------------------|----------------------------|


                                                       
-------------------------|----------------------------|
-------------------------|----------------------------|
--2--2-2-2--2--0----3----|--2--2-2-2--2--2--2-2-2--2--|
-------------------------|----------------------------|
-------------------------|----------------------------|


                                                       
-------------------------|----------------------------|
---------------2------1--|----------------------------|
--2--2-2-2--2------------|--2--2-2-2--2--2--2-2-2--2--|
-------------------------|----------------------------|
-------------------------|----------------------------|


                                                       
-------------------------|----------------------------|
-------------------------|----------------------------|
--2--2-2-2--2--0----3----|--2--2-2-2--2--2--2-2-2--2--|
-------------------------|----------------------------|
-------------------------|----------------------------|


                                                                   
-------------------------|-------------------|--------------------|
---------------2------1--|--2----------------|--5--------4--------|
--2--2-2-2--2------------|-------------------|--------------------|
-------------------------|-------------------|--------------------|
-------------------------|-------------------|--------------------|


                                                       
----------------------------|-------------------------|
----------------------------|-------------------------|
--2--2-2-2--2--2--2-2-2--2--|--2--2-2-2--2--0----3----|
----------------------------|-------------------------|
----------------------------|-------------------------|


                                                       
----------------------------|-------------------------|
----------------------------|---------------2------1--|
--2--2-2-2--2--2--2-2-2--2--|--2--2-2-2--2------------|
----------------------------|-------------------------|
----------------------------|-------------------------|


                                                       
----------------------------|-------------------------|
----------------------------|-------------------------|
--2--2-2-2--2--2--2-2-2--2--|--2--2-2-2--2--0----3----|
----------------------------|-------------------------|
----------------------------|-------------------------|


                                                                           
----------------------------|-------------------------|-------------------|
----------------------------|---------------2------1--|--2----------------|
--2--2-2-2--2--2--2-2-2--2--|--2--2-2-2--2------------|-------------------|
----------------------------|-------------------------|-------------------|
----------------------------|-------------------------|-------------------|


                                                        
--------------------|----------------------------------|
--5--------4--------|----------------------------------|
--------------------|--2-2-2-2-2-2-2-2-2-2-2-2-2-2-2-2-|
--------------------|----------------------------------|
--------------------|----------------------------------|


                                                                      
----------------------------------|----------------------------------|
----------------------------------|----------------------------------|
--2-2-2-2-2-2-2-2-0-0-0-0-3-3-3-3-|--2-2-2-2-2-2-2-2-2-2-2-2-2-2-2-2-|
----------------------------------|----------------------------------|
----------------------------------|----------------------------------|


                                                                      
----------------------------------|----------------------------------|
------------------2-2-2-2-2-2-1-1-|----------------------------------|
--2-2-2-2-2-2-2-2-----------------|--2-2-2-2-2-2-2-2-2-2-2-2-2-2-2-2-|
----------------------------------|----------------------------------|
----------------------------------|----------------------------------|


                                                                      
----------------------------------|----------------------------------|
----------------------------------|----------------------------------|
--2-2-2-2-2-2-2-2-0-0-0-0-3-3-3-3-|--2-2-2-2-2-2-2-2-2-2-2-2-2-2-2-2-|
----------------------------------|----------------------------------|
----------------------------------|----------------------------------|


                                                                            
----------------------------------|--------------------|-------------------|
------------------2-2-2-2-2-2-1-1-|--------------------|-------------------|
--2-2-2-2-2-2-2-2-----------------|--0------------2----|-------------------|
----------------------------------|--------------------|--0----------------|
----------------------------------|--------------------|-------------------|


                                                              
--------------------|-------------------|--------------------|
--------------------|-------------------|--------------------|
--0------------2----|-------------------|--0------------2----|
--------------------|--0----------------|--------------------|
--------------------|-------------------|--------------------|


                                                             
-------------------|--------------------|-------------------|
-------------------|--------------------|-------------------|
-------------------|--0------------2----|-------------------|
--0----------------|--------------------|--0----------------|
-------------------|--------------------|-------------------|


                                                                           
------------------------|------------------------|------------------------|
------------------------|------------------------|------------------------|
--0----0--0--0----2--2--|------------------------|--0----0--0--0----2--2--|
------------------------|--0----0--0--0----0--0--|------------------------|
------------------------|------------------------|------------------------|


                                                                           
------------------------|------------------------|------------------------|
------------------------|------------------------|------------------------|
------------------------|--0----0--0--0----2--2--|------------------------|
--0----0--0--0----0--0--|------------------------|--0----0--0--0----0--0--|
------------------------|------------------------|------------------------|


                                                                      
------------------------|------------------------|-------------------|
------------------------|------------------------|-------------------|
--0----0--0--0----2--2--|------------------------|-------------------|
------------------------|--0----0--0--0----0--0--|--0----------------|
------------------------|------------------------|-------------------|


                                                                            
--------------------|----------------------------|-------------------------|
--5--------4--------|----------------------------|-------------------------|
--------------------|--2--2-2-2--2--2--2-2-2--2--|--2--2-2-2--2--0----3----|
--------------------|----------------------------|-------------------------|
--------------------|----------------------------|-------------------------|


                                                       
----------------------------|-------------------------|
----------------------------|---------------2------1--|
--2--2-2-2--2--2--2-2-2--2--|--2--2-2-2--2------------|
----------------------------|-------------------------|
----------------------------|-------------------------|


                                                       
----------------------------|-------------------------|
----------------------------|-------------------------|
--2--2-2-2--2--2--2-2-2--2--|--2--2-2-2--2--0----3----|
----------------------------|-------------------------|
----------------------------|-------------------------|


                                                                           
----------------------------|-------------------------|-------------------|
----------------------------|---------------2------1--|--2----------------|
--2--2-2-2--2--2--2-2-2--2--|--2--2-2-2--2------------|-------------------|
----------------------------|-------------------------|-------------------|
----------------------------|-------------------------|-------------------|


                                                        
--------------------|----------------------------------|
--5--------4--------|----------------------------------|
--------------------|--2-2-2-2-2-2-2-2-2-2-2-2-2-2-2-2-|
--------------------|----------------------------------|
--------------------|----------------------------------|


                                                                      
----------------------------------|----------------------------------|
----------------------------------|----------------------------------|
--2-2-2-2-2-2-2-2-0-0-0-0-3-3-3-3-|--2-2-2-2-2-2-2-2-2-2-2-2-2-2-2-2-|
----------------------------------|----------------------------------|
----------------------------------|----------------------------------|


                                                                      
----------------------------------|----------------------------------|
------------------2-2-2-2-2-2-1-1-|----------------------------------|
--2-2-2-2-2-2-2-2-----------------|--2-2-2-2-2-2-2-2-2-2-2-2-2-2-2-2-|
----------------------------------|----------------------------------|
----------------------------------|----------------------------------|


                                                                      
----------------------------------|----------------------------------|
----------------------------------|----------------------------------|
--2-2-2-2-2-2-2-2-0-0-0-0-3-3-3-3-|--2-2-2-2-2-2-2-2-2-2-2-2-2-2-2-2-|
----------------------------------|----------------------------------|
----------------------------------|----------------------------------|


                                                                             
----------------------------------|--------------------|--------------------|
------------------2-2-2-2-2-2-1-1-|--------------------|--------------------|
--2-2-2-2-2-2-2-2-----------------|--------------------|--------------------|
----------------------------------|--2--2--------------|--2--2--------------|
----------------------------------|--------------------|--------------------|


                                                                                
--------------------|----------------------------------|-----------------------|
--------------------|----------------------------------|-----------------------|
--------------------|----------------------------------|-----------------------|
--2--2--------------|--7-7-7-7-6-6-6-6-3-3-3-3-6-6-6-6-|--2--2----2--3----6----|
--------------------|----------------------------------|-----------------------|


                                                
-----------------------|-----------------------|
-----------------------|-----------------------|
-----------------------|-----------------------|
--2--2----2--3----0----|--2--2----2--3----6----|
-----------------------|-----------------------|


                                                           
----------------------------------|-----------------------|
----------------------------------|-----------------------|
----------------------------------|-----------------------|
--7-7-7-7-6-6-6-6-3-3-3-3-6-6-6-6-|--2--2----2--3----6----|
----------------------------------|-----------------------|


                                                
-----------------------|-----------------------|
-----------------------|-----------------------|
-----------------------|-----------------------|
--2--2----2--3----6----|--2--2----2--3----6----|
-----------------------|-----------------------|


                                                                      
----------------------------------|----------------------------------|
----------------------------------|----------------------------------|
----------------------------------|----------------------------------|
--7-7-7-7-6-6-6-6-3-3-3-3-6-6-6-6-|--2-2-2-2-2-2-2-2-3-3-3-3-6-6-6-6-|
----------------------------------|----------------------------------|


                                                                      
----------------------------------|----------------------------------|
----------------------------------|----------------------------------|
----------------------------------|----------------------------------|
--2-2-2-2-2-2-2-2-3-3-3-3-0-0-0-0-|--2-2-2-2-2-2-2-2-3-3-3-3-6-6-6-6-|
----------------------------------|----------------------------------|


                                                                      
----------------------------------|----------------------------------|
----------------------------------|----------------------------------|
----------------------------------|----------------------------------|
--7-7-7-7-6-6-6-6-3-3-3-3-6-6-6-6-|--2-2-2-2-2-2-2-2-3-3-3-3-6-6-6-6-|
----------------------------------|----------------------------------|


                                                                      
----------------------------------|----------------------------------|
----------------------------------|----------------------------------|
----------------------------------|----------------------------------|
--2-2-2-2-2-2-2-2-3-3-3-3-0-0-0-0-|--2-2-2-2-2-2-2-2-3-3-3-3-6-6-6-6-|
----------------------------------|----------------------------------|


                                                                      
----------------------------------|----------------------------------|
----------------------------------|----------------------------------|
----------------------------------|----------------------------------|
--7-7-7-7-6-6-6-6-3-3-3-3-6-6-6-6-|--2-2-2-2-2-2-2-2-3-3-3-3-6-6-6-6-|
----------------------------------|----------------------------------|


                                                                      
----------------------------------|----------------------------------|
----------------------------------|----------------------------------|
----------------------------------|----------------------------------|
--2-2-2-2-2-2-2-2-3-3-3-3-0-0-0-0-|--2-2-2-2-2-2-2-2-3-3-3-3-6-6-6-6-|
----------------------------------|----------------------------------|


                                                                      
----------------------------------|----------------------------------|
----------------------------------|----------------------------------|
----------------------------------|----------------------------------|
--7-7-7-7-6-6-6-6-3-3-3-3-6-6-6-6-|--2-2-2-2-2-2-2-2-3-3-3-3-6-6-6-6-|
----------------------------------|----------------------------------|


                                                                      
----------------------------------|----------------------------------|
----------------------------------|----------------------------------|
----------------------------------|----------------------------------|
--2-2-2-2-2-2-2-2-3-3-3-3-0-0-0-0-|--2-2-2-2-2-2-2-2-3-3-3-3-6-6-6-6-|
----------------------------------|----------------------------------|

[ Tab from: http://www.guitartabs.cc/tabs/d/dimmu_borgir/masses_for_the_new_messiah_btab.html ]
                                                               
----------------------------------|---------------------------|
----------------------------------|---------------------------|
----------------------------------|---------------------------|
--7-7-7-7-6-6-6-6-3-3-3-3-6-6-6-6-|--4-4-4-4-4-4-4-4-4--------|
----------------------------------|---------------------------|


                                                                        
------------------------|------------------|---------------------------|
------------------------|------------------|---------------------------|
------------------------|------------------|---------------------------|
--2--2--2----0--0--0----|------------------|--0-0-0-0-0-0-0-0-0--------|
------------------------|------------------|---------------------------|


                                                                        
---------------------------|------------------------|------------------|
---------------------------|------------------------|------------------|
---------------------------|--6--6--6----5--5--5----|------------------|
--4-4-4-4-4-4-4-4-4--------|------------------------|------------------|
---------------------------|------------------------|------------------|


                                                        
---------------------------|---------------------------|
---------------------------|---------------------------|
--5-5-5-5-5-5-5-5-5--------|---------------------------|
---------------------------|--4-4-4-4-4-4-4-4-4--------|
---------------------------|---------------------------|


                                                                        
------------------------|------------------|---------------------------|
------------------------|------------------|---------------------------|
------------------------|------------------|---------------------------|
--2--2--2----0--0--0----|------------------|--0-0-0-0-0-0-0-0-0--------|
------------------------|------------------|---------------------------|


                                                                        
---------------------------|------------------------|------------------|
---------------------------|------------------------|------------------|
---------------------------|--6--6--6----5--5--5----|------------------|
--4-4-4-4-4-4-4-4-4--------|------------------------|------------------|
---------------------------|------------------------|------------------|


                                                        
---------------------------|---------------------------|
---------------------------|---------------------------|
--5-5-5-5-5-5-5-5-5--------|---------------------------|
---------------------------|--4-4-4-4-4-4-4-4-4--------|
---------------------------|---------------------------|


                                                                        
------------------------|------------------|---------------------------|
------------------------|------------------|---------------------------|
------------------------|------------------|---------------------------|
--2--2--2----0--0--0----|------------------|--0-0-0-0-0-0-0-0-0--------|
------------------------|------------------|---------------------------|


                                                                        
---------------------------|------------------------|------------------|
---------------------------|------------------------|------------------|
---------------------------|--6--6--6----5--5--5----|------------------|
--4-4-4-4-4-4-4-4-4--------|------------------------|------------------|
---------------------------|------------------------|------------------|


                                                        
---------------------------|---------------------------|
---------------------------|---------------------------|
--5-5-5-5-5-5-5-5-5--------|---------------------------|
---------------------------|--4-4-4-4-4-4-4-4-4--------|
---------------------------|---------------------------|


                                                                        
------------------------|------------------|---------------------------|
------------------------|------------------|---------------------------|
------------------------|------------------|---------------------------|
--2--2--2----0--0--0----|------------------|--0-0-0-0-0-0-0-0-0--------|
------------------------|------------------|---------------------------|


                                                                        
---------------------------|------------------------|------------------|
---------------------------|------------------------|------------------|
---------------------------|--6--6--6----5--5--5----|------------------|
--4-4-4-4-4-4-4-4-4--------|------------------------|------------------|
---------------------------|------------------------|------------------|


                                                               
---------------------------|----------------------------------|
---------------------------|----------------------------------|
--5-5-5-5-5-5-5-5-5--------|----------------------------------|
---------------------------|--2-2-2-2-2-2-2-2-3-3-3-3-6-6-6-6-|
---------------------------|----------------------------------|


                                                                      
----------------------------------|----------------------------------|
----------------------------------|----------------------------------|
----------------------------------|----------------------------------|
--2-2-2-2-2-2-2-2-3-3-3-3-0-0-0-0-|--2-2-2-2-2-2-2-2-3-3-3-3-6-6-6-6-|
----------------------------------|----------------------------------|


                                                                      
----------------------------------|----------------------------------|
----------------------------------|----------------------------------|
----------------------------------|----------------------------------|
--7-7-7-7-6-6-6-6-3-3-3-3-6-6-6-6-|--2-2-2-2-2-2-2-2-3-3-3-3-6-6-6-6-|
----------------------------------|----------------------------------|


                                                                      
----------------------------------|----------------------------------|
----------------------------------|----------------------------------|
----------------------------------|----------------------------------|
--2-2-2-2-2-2-2-2-3-3-3-3-0-0-0-0-|--2-2-2-2-2-2-2-2-3-3-3-3-6-6-6-6-|
----------------------------------|----------------------------------|


                                                                      
----------------------------------|----------------------------------|
----------------------------------|----------------------------------|
----------------------------------|----------------------------------|
--7-7-7-7-6-6-6-6-3-3-3-3-6-6-6-6-|--2-2-2-2-2-2-2-2-3-3-3-3-6-6-6-6-|
----------------------------------|----------------------------------|


                                                                      
----------------------------------|----------------------------------|
----------------------------------|----------------------------------|
----------------------------------|----------------------------------|
--2-2-2-2-2-2-2-2-3-3-3-3-0-0-0-0-|--2-2-2-2-2-2-2-2-3-3-3-3-6-6-6-6-|
----------------------------------|----------------------------------|


                                                                      
----------------------------------|----------------------------------|
----------------------------------|----------------------------------|
----------------------------------|----------------------------------|
--7-7-7-7-6-6-6-6-3-3-3-3-6-6-6-6-|--2-2-2-2-2-2-2-2-3-3-3-3-6-6-6-6-|
----------------------------------|----------------------------------|


                                                                      
----------------------------------|----------------------------------|
----------------------------------|----------------------------------|
----------------------------------|----------------------------------|
--2-2-2-2-2-2-2-2-3-3-3-3-0-0-0-0-|--2-2-2-2-2-2-2-2-3-3-3-3-6-6-6-6-|
----------------------------------|----------------------------------|


                                                                           
----------------------------------|-------------------|-------------------|
----------------------------------|-------------------|-------------------|
----------------------------------|-------------------|-------------------|
--7-7-7-7-6-6-6-6-3-3-3-3-6-6-6-6-|--0----------------|--7----------------|
----------------------------------|-------------------|-------------------|


                                                                                
-------------------|-------------------|-------------------|-------------------|
-------------------|-------------------|-------------------|-------------------|
-------------------|-------------------|-------------------|-------------------|
--3----------------|--5----------------|--0----------------|--7----------------|
-------------------|-------------------|-------------------|-------------------|


                                                                                
-------------------|-------------------|-------------------|-------------------|
-------------------|-------------------|-------------------|-------------------|
-------------------|-------------------|-------------------|-------------------|
--3----------------|--5----------------|--0----------------|--7----------------|
-------------------|-------------------|-------------------|-------------------|


                                                                   
--------------------------|-------------------|-------------------|
--------------------------|-------------------|-------------------|
--------------------------|-------------------|-------------------|
--3--------3----2----3----|--5----------------|--0----------------|
--------------------------|-------------------|-------------------|


                                                                   
-------------------|--------------------------|-------------------|
-------------------|--------------------------|-------------------|
-------------------|--------------------------|-------------------|
--7----------------|--3--------3----2----3----|--5----------------|
-------------------|--------------------------|-------------------|


                                                                                
-------------------|-------------------|-------------------|-------------------|
-------------------|-------------------|-------------------|-------------------|
-------------------|-------------------|-------------------|-------------------|
--0----------------|--7----------------|--3----------------|--5----------------|
-------------------|-------------------|-------------------|-------------------|


                                                                                
-------------------|-------------------|-------------------|-------------------|
-------------------|-------------------|-------------------|-------------------|
-------------------|-------------------|-------------------|-------------------|
--0----------------|--7----------------|--3----------------|--5----------------|
-------------------|-------------------|-------------------|-------------------|


                                                                   
-------------------|-------------------|--------------------------|
-------------------|-------------------|--------------------------|
-------------------|-------------------|--------------------------|
--0----------------|--7----------------|--3--------3----2----3----|
-------------------|-------------------|--------------------------|


                                                            
-------------------|-------------------|-------------------|
-------------------|-------------------|-------------------|
-------------------|-------------------|-------------------|
--5----------------|--0----------------|--7----------------|
-------------------|-------------------|-------------------|


                                                                           
--------------------------|-------------------|---------------------------|
--------------------------|-------------------|---------------------------|
--------------------------|-------------------|---------------------------|
--3--------3----2----3----|--5----------------|--4-4-4-4-4-4-4-4-4--------|
--------------------------|-------------------|---------------------------|


                                                                        
------------------------|------------------|---------------------------|
------------------------|------------------|---------------------------|
------------------------|------------------|---------------------------|
--2--2--2----0--0--0----|------------------|--0-0-0-0-0-0-0-0-0--------|
------------------------|------------------|---------------------------|


                                                                        
---------------------------|------------------------|------------------|
---------------------------|------------------------|------------------|
---------------------------|--6--6--6----5--5--5----|------------------|
--4-4-4-4-4-4-4-4-4--------|------------------------|------------------|
---------------------------|------------------------|------------------|


                                                        
---------------------------|---------------------------|
---------------------------|---------------------------|
--5-5-5-5-5-5-5-5-5--------|---------------------------|
---------------------------|--4-4-4-4-4-4-4-4-4--------|
---------------------------|---------------------------|


                                                                        
------------------------|------------------|---------------------------|
------------------------|------------------|---------------------------|
------------------------|------------------|---------------------------|
--2--2--2----0--0--0----|------------------|--0-0-0-0-0-0-0-0-0--------|
------------------------|------------------|---------------------------|


                                                                        
---------------------------|------------------------|------------------|
---------------------------|------------------------|------------------|
---------------------------|--6--6--6----5--5--5----|------------------|
--4-4-4-4-4-4-4-4-4--------|------------------------|------------------|
---------------------------|------------------------|------------------|


                                                        
---------------------------|---------------------------|
---------------------------|---------------------------|
--5-5-5-5-5-5-5-5-5--------|---------------------------|
---------------------------|--4-4-4-4-4-4-4-4-4--------|
---------------------------|---------------------------|


                                                                        
------------------------|------------------|---------------------------|
------------------------|------------------|---------------------------|
------------------------|------------------|---------------------------|
--2--2--2----0--0--0----|------------------|--0-0-0-0-0-0-0-0-0--------|
------------------------|------------------|---------------------------|


                                                                        
---------------------------|------------------------|------------------|
---------------------------|------------------------|------------------|
---------------------------|--6--6--6----5--5--5----|------------------|
--4-4-4-4-4-4-4-4-4--------|------------------------|------------------|
---------------------------|------------------------|------------------|


                                                        
---------------------------|---------------------------|
---------------------------|---------------------------|
--5-5-5-5-5-5-5-5-5--------|---------------------------|
---------------------------|--4-4-4-4-4-4-4-4-4--------|
---------------------------|---------------------------|


                                                                        
------------------------|------------------|---------------------------|
------------------------|------------------|---------------------------|
------------------------|------------------|---------------------------|
--2--2--2----0--0--0----|------------------|--0-0-0-0-0-0-0-0-0--------|
------------------------|------------------|---------------------------|


                                                                        
---------------------------|------------------------|------------------|
---------------------------|------------------------|------------------|
---------------------------|--6--6--6----5--5--5----|------------------|
--4-4-4-4-4-4-4-4-4--------|------------------------|------------------|
---------------------------|------------------------|------------------|


                                                    
-------------------------------|------------------||
-------------------------------|------------------||
--5-5-5-5-5-5-5-5-5-5-5-5-5----|------------------||
-------------------------------|------------------||
-------------------------------|------------------||
Comments