Dimmu Borgir - Inn I Evighetens Morke Part 1 Chords & Tabs

 

Inn I Evighetens Morke Part 1 Chords & Tabs

Dimmu Borgir Chords & Tabs

Version: 1 Type: Tab 0 ratings
1 star 2 stars 3 stars 4 stars 5 stars
comments

Inn I Evighetens Morke Part 1 Tab

-------------------------------------------------------------------------------
			     Inn I Evighetens Morke (Part 1) - Dimmu Borgir
						For all Tid [1994]
-------------------------------------------------------------------------------
Tabbed by: UNKNOWNer
Email: andrej_paulus@net.hr

Tuning: Standard

Riff 1:
e|---------------------------------------------------------------------------|
B|---------------------------------------------------------------------------|
G|---5---4---5---4-----------------------------------------------------------|
D|---5---4---5---4----6---5---6---5------------------------------------------|
A|---3---2---3---2----6---5---6---5------------------------------------------|
E|--------------------4---3---4---3------------------------------------------|
[ Tab from: http://www.guitartabs.cc/tabs/d/dimmu_borgir/inn_i_evighetens_morke_part_1_tab.html ]
Riff 2:
e|---------------------------------------------------------------------------|
B|---------------------------------------------------------------------------|
G|---------------------------------------------------------------------------|
D|---------------------------------------------------------------------------|
A|-----3.----3.--------------------------5.-6.-5.-(3)-5.-6.-5.---------------|
E|--2.----2.-----5.-6.-5.-(3)--5.-6.-5.--------------------------------------|

Riff 3:
e|---------------------------------------------------------------------------|
B|---------------------------------------------------------------------------|
G|---------------------------------------------------------------------------|
D|---------------------------------------------------------------------------|
A|--9.-8.-9.-8.--------------------------------------------------------------|
E|--------------7.-6.-7.-6.--------------------------------------------------|

End:
e|---------------------------------------------------------------------------|
B|--7------------------------------------------------------------------------|
G|--7------------------------------------------------------------------------|
D|--9------------------------------------------------------------------------|
A|--9------------------------------------------------------------------------|
E|--7------------------------------------------------------------------------|

Song structure:

Riff 1,
Riff 2,
Riff 3,
End.
Comments