Dimmu Borgir - Indoctrination Chords & Tabs

 

Indoctrination Chords & Tabs

Dimmu Borgir Chords & Tabs

Version: 1 Type: Tab 0 ratings
1 star 2 stars 3 stars 4 stars 5 stars
comments

Indoctrination Tab

   
 DIMMU BORGIR - IndoctriNation
                                                   

Transcribed by: Saul antonio                   cuirax@msn.com

Notation:
[m] = Artificial Harmonic
~~~ = Vibrato
PM_ = Palm Mute
/m\ = Slide



Tuning: E, A, D, G, B, E



INTRO:

 e[-------------------------------------]
 B[-------------------------------------]
 G[-------------------------------------]
 D[---11-9-11-9-11-12-12-12-12-12-12\---]
 A[-2--9-7--9-7--9-10-10-10-10-10-10\\--]
 E[-0--------------------------------\\-]



VERSE:

   (probably fast picking)
 e[----------------------------]
 B[----------------------------]
 G[----------------------------]
 D[----------------------------]
 A[-2--4---4---4-5---4-----5\4-]
 E[-0--2-0-2-0-2-3---2--0--3\2-]


 e[-------------------------------------]
 B[-------------------------------------]
 G[-------------------------------------]
 D[---11-9-11-9-11-12-12-12-12-12-12\---]
 A[-2--9-7--9-7--9-10-10-10-10-10-10\\--]
 E[-0--------------------------------\\-]


 e[----------------------------]
 B[----------------------------]
 G[----------------------------]
 D[----------------------------]
 A[-2--4---4---4-5---4-----5\4-]
 E[-0--2-0-2-0-2-3---2--0--3\2-]



BREAK:

 e[---------------------|----------------------]
 B[---------------------|----------------------]
 G[-9---8---9---8---5-4-|-9---8---9---5--------]
 D[-9---8---9---8---5-4-|-9---8---9---5----7-3-]
 A[-7---6---7---6---3-2-|-7---6---7---3----7-3-]
 E[---0---0---0---0-----|---0---0---0---0--5-1-]
                                           PM_

  (1x)
 e[---------------------|----------------------]
 B[---------------------|----------------------]
 G[-9---8---9---8---5-4-|-9---8---9---5--------]
 D[-9---8---9---8---5-4-|-9---8---9---5----7-3-]
 A[-7---6---7---6---3-2-|-7---6---7---3----7-3-]
 E[---------------------|------------------5-1-]
                                           PM_

 e[---------------------|----------------------]
 B[---------------------|----------------------]
 G[-9---8---9---8---5-4-|-9---8---9---5--------]
 D[-9---8---9---8---5-4-|-9---8---9---5----7-3-]
 A[-7---6---7---6---3-2-|-7---6---7---3----7-3-]
 E[---0---0---0---0-----|---0---0---0---0--5-1-]
                                           PM_

 e[-------------------------------------|-------------------------------------]
 B[-------------------------------------|-------------------------------------]
 G[-4-----------------------------------|-4-----------------------------------]
 D[-4--------5--------8-----------------|-4--------5--------8-----------------]
 A[-2--------5--------6-----------------|-2--------5--------8-----------------]
 E[----------3--------6-----------------|----------3--------6-----------------]


 e[-------------------------------------|--------------------------------------]
 B[-------------------------------------|--------------------------------------]
 G[----4-5-4-------------8-9-8----8-9-8-|-----4-5-4----------------------------]
 D[-------------5-6-5-------------------|--------------5-6-5----8-9-8----8-9-8-]
 A[-2-----------------6--------6--------|--2-----------------------------------]
 E[----------3--------------------------|-----------3--------6--------6--------]


BREAK

    (let ring...)
 e[---------------------------]
 B[---------------------------]
 G[---------------------------]
 D[-6-------------------------]
 A[-4-------------------------]
 E[-4-------------------------]


RIFF A/

 e[-------------------------------------------------------------------------------------------]
 B[-------------------------------------------------------------------------------------------]
 G[-------------------------------------------------------------------------------------------]
 D[-7-7-7-7-7-7-------7-7-7-9-9-9-9-9-9-------9-9-9-7-7-7-7-7-7-------7-7-7-9-9-9-9-9-9-------]
 A[-------------7-7-7-------------------7-7-7-------------------7-7-7-------------------7-7-7-]
 E[-------------------------------------------------------------------------------------------]
[ Tab from: http://www.guitartabs.cc/tabs/d/dimmu_borgir/indoctrination_tab.html ]
 e[-------------------------------------------------------------------------------------------]
 B[-------------------------------------------------------------------------------------------]
 G[-------------------------------------------------------------------------------------------]
 D[-14-14-14-14-14-14----------14-14-14-13-13-13-13-13-13----------13-13-13-14-14-14-14-14-14-]
 A[-------------------15-15-15----------------------------15-15-15----------------------------]
 E[-------------------------------------------------------------------------------------------]

 e[-------------------------------------]
 B[-------------------------------------]
 G[-------------------------------------]
 D[----------14-14-14-13-13-13-13-13-13-]
 A[-15-15-15----------------------------]
 E[-------------------------------------]

 e[-----------------------------------------------------------------------------------------------------]
 B[---------------------------------------------------------------------------------------------------]
 G[-----------------------------------------------------------------------------------------------------]
 D[---6-6-6-6-6-6-------6-6-6-5-5-5-5-5-5-------5-5-5-6-6-6-6-6-6-------6-6-6-7-7-7-7-7-7-------7-7-7---]
 A[--------------7-7-7-------------------7-7-7-------------------7-7-7-------------------7-7-7--------]
 E[-----------------------------------------------------------------------------------------------------]

 e[-------------------------------------------------------------------------------------]
 B[-------------------------------------------------------------------------------------]
 G[-------------------------------------------------------------------------------------]
 D[-7-7-7-------7-7-7-9-9-9-9-9-9-------9-9-9-7-7-7-7-7-7-------7-7-7-9-9-9-9-9-9-------]
 A[-------7-7-7-------------------7-7-7-------------------7-7-7-------------------7-7-7-]
 E[-------------------------------------------------------------------------------------]

 e[---------------------------------------------------------------------------------------------]
 B[--------------------------------------------------------------------------------------------]
 G[---------------------------------------------------------------------------------------------]
 D[---14-14-14-14-14-14----------14-14-14-13-13-13-13-13-13----------13-13-13-14-14-14-14-14-14-]
 A[--------------------15-15-15----------------------------15-15-15----------------------------]
 E[---------------------------------------------------------------------------------------------]

 e[---------------------------------------------------------]
 B[--------------------------------------------------------]
 G[---------------------------------------------------------]
 D[----------14-14-14-13-13-13-13-13-13----------13-13-13---]
 A[-15-15-15----------------------------15-15-15-----------]
 E[---------------------------------------------------------]


BREAK:

 e[-------------------------------]
 B[-------------------------------]
 G[-------------------------------]
 D[-------------------------------]
 A[-5-4-5-7-8-7-8-10-11-----------]
 E[-3-2-3-5-6-5-6--8--9-----------]
    PM______________

+ RIFF A/



END:
              (let ring...)
 e[---------------------------------]
 B[---------------------------------]
 G[---------------------------------]
 D[-6--6-6-6--5---------------------]
 A[-4--4-4-4--3---------------------]
 E[-4--4-4-4--3---------------------]
    PM______


   (4x)                                (let ring...)
 e[----------------------------------------------------------]
 B[----------------------------------------------------------]
 G[----------------------------------------------------------]
 D[-6------------7--------7--6--6-6-6--5---------------------]
 A[-6------------5--------5--4--4-4-4--3---------------------]
 E[-4------------5--------5--4--4-4-4--3---------------------]
                             PM______

   (4x)
 e[-----------------------------------------------------------]
 B[-----------------------------------------------------------]
 G[-----------------------------------------------------------]
 D[-6------------7--------7--6--6-6-6--5----6-5---6-6-5---5-6-]
 A[-6------------5--------5--4--4-4-4--3----4-3---4-4-3---3-4-]
 E[-4------------5--------5--4--4-4-4--3----4-3---4-4-3---3-4-]
                             PM______      PM     PM_       PM
Comments