Dimmu Borgir - For All Tid Chords & Tabs

 

For All Tid Chords & Tabs

Dimmu Borgir Chords & Tabs

Version: 1 Type: Tab 0 ratings
1 star 2 stars 3 stars 4 stars 5 stars
comments

For All Tid Tab

                     DIMMU BORGIR - FOR ALL TID


From the album: For All Tid

Tabulature by: Arto Osterman (thornofsin@hotmail.com)

Tuning: Standard

Marking:

Let ring = l
Palm mute = ......


Clean guitar:

Riff 1:
|-----------0--------|
|-------0-1---1------|
|-----2---------2----|
|---2----------------|
|-0------------------|
|--------------------|


Riff 2:
|-----------------------|
|-----------------------|
|-----------------------|
|-7-77-7-77-------------|
|-5-55-5-55--7-77-7-77--|
|------------5-55-5-55--|



Riff 3:
|----------------------------------|
|----------------------------------|
|----------------------------------|
|-----------------------5-55-5-55--|
|-2-22-2-22--5-55-5-55--3-33-3-33--|
|-0-00-0-00--3-33-3-33-------------|


Riff 4:
|---------------------------------|
|---------------------------------|
|---------------------------------|
|-2-2--1010--7-7--10-9--10--------|
|-0-0--8-8---5-5--8--7--8---------|
|---------------------------------|


Riff 5:
|------------------------------------------
|------------------------------------------
|------------------------------------------
|------------------------------------------
|-777-101010-999-101010--------101010-999--
|-----------------------888888-------------

[ Tab from: http://www.guitartabs.cc/tabs/d/dimmu_borgir/for_all_tid_tab.html ]
        ------------------------------------------------|
        ------------------------------------------------|
        ------------------------------------------------|
        ------------------------------------------------|
        -777-101010-999-101010-121212121212-101010-999--|
        ------------------------------------------------|


Riff 6:
|-----------------------------------------------------------|
|-----------------------------------------------------------|
|-----------------------------------------------------------|
|-222-555-444-555-777777777777--222-555-444-555-777-444444--|
|-000-333-222-333-555555555555--000-333-222-333-555-222222--|
|-----------------------------------------------------------|


Riff 7 (guitar 1):
|--------------------------------|
|--------------------------------|
|--------------------------------|
|-222222222222-------------------|
|-000000000000-222222222222------|
|--------------000000000000------|
  ............ ............



(guitar 2):
|---------------------------------------------------|
|---------------------------------------------------|
|---------------------------------------------------|
|-----7-----7-----7-----7-----2-----2-----2-----2---|
|---7-----7-----7-----7-----2-----2-----2-----2-----|
|-5-----5-----5-----5-----0-----0-----0-----0-------|


Riff 8 (guitar 1):
|--------------------------------|
|--------------------------------|
|--------------------------------|
|--------------------------------|
|-333333333333-222222--333-555---|
|-111111111111-000000--111-333---|
  ............ ......


(guitar 2):
|--------------------------------------------------|
|--------------------------------------------------|
|-----0-----0-----0-----0-----0-----0-----0-----0--|
|---7-----7-----7-----7-----0-----0-----0-----0----|
|-8-----8-----8-----8-----7-----7-----7-----7------|
|--------------------------------------------------|


                        >>> ANY CORRECTIONS ARE WELCOME <<<
Comments