Dimmu Borgir - Entrance Chords & Tabs

 

Entrance Chords & Tabs

Dimmu Borgir Chords & Tabs

Version: 1 Type: Tab 0 ratings
1 star 2 stars 3 stars 4 stars 5 stars
comments

Entrance Tab

   
"Entrance" as performed by Dimmu Borgir on 
 their 1997 album "Enthrone Darkness Triumphant"

Transcriped by Lord Upir on 14-04-1999
Corrections by Rafael Veliz (RafaelV@koramsa.com)

Normal tuning (EADGBe)

Notation Legend:
...   palm mute
x\    slide down the neck from the 15th fret to some indefinate point
x\x   slide down the neck
x/x   slide up the neck
(x)   ghost note (the note is striked before, but it sounds through)
xtrx  trill (repeated quick hammer-on and pull-off between two notes)
*     see note belows lines

Intro 2x
e|---------------------------------------------------------------------------------------|
B|---------------------------------------------------------------------------------------|
G|-2------2------2------7--------------------2------2------2------7------10------10------|
D|-2------2------2------7------3------3------2------2------2------7------10------10------|
A|-0-0000-0-0000-0-0000-5-5555-3------3------0-0000-0-0000-0-0000-5-5555--8-8888--8-8888-|
E|-----------------------------1-1111-1-1111---------------------------------------------|
     ....   ....   ....   ....   ....   ....   ....   ....   ....   ....    ....    ....

First verse (riff 2)
e|--------------------------------------------------------------------------------------|
B|--------------------------------------------------------------------------------------|
G|-2--------------------7-------------------------2---------------7---------10----------|
D|-2--------------------7------------3------------2---------------7---------10----------|
A|-0--------------------5------------3------------0---------------5----------8----------|
E|-----------------------------------1--------------------------------------------------|

[ Tab from: http://www.guitartabs.cc/tabs/d/dimmu_borgir/entrance_tab.html ]
guitar and bass out, keyboard arranged for guitar (riff 3):
e|-----------------------------------|
B|-----------------------------------|
G|-5-------5-------9-------9---------|
D|-----------------------------------|
A|-----------------------------------|
E|-----------------------------------|

Second verse
e|-------------------|
B|-------------------|
G|-5-------9---------|
D|-5-------9---------|
A|-3-------7---------|
E|-------------------|


play riff 2 8x

guitar, bass and drum out.
riff 5
e|-----------------------|
B|-----------------------|
G|-2-------5-------9---7-|
D|-2-------5-------9---7-|
A|-0-------3-------7---5-|
E|-----------------------|
The fading of love, life and light

riff 6                          4x
e|--------------------------------|
B|--------------------------------|
G|--------------------------------|
D|--------------------------------|
A|-000000003333333377775555555555-|
E|--------------------------------|
   ..............................

riff 5a
e|----------------------------------------------|
B|----------------------------------------------|
G|-2-------5-------9---7---------7--9-10--------|
D|-2-------5-------9---7---------7--9-10--------|
A|-0-------3-------7---5---------5--7-8---------|
E|----------------------------------------------|

  guitar 1: chords
e|----------------------------------------------|
B|----------------------------------------------|
G|-2-------5-------9---7---------7--9-10--------|
D|-2-------5-------9---7---------7--9-10--------|
A|-0-0-0-0-3-3-3-3-7-7-5-5-5-5-5-5--7-8---------|
E|----------------------------------------------|
 |   . . .  . . .    .   . . . .                |
 |guitar 2: solo                                |
e|----------------------------------------------|
B|----------------------------------------------|
G|----------------------------------------------|
D|----------------------------------------------|
A|-0------/8--7--5--7--5------------------------|
E|----------------------------------------------|

play riff 3


play riff 2


play intro riff


final chord:
e|-----------
B|------------
G|-2--------
D|-2---------
A|-0--------
E|-------
Comments