Dimmu Borgir - Da Den Kristine Satte Livet Til Chords & Tabs

 

Da Den Kristine Satte Livet Til Chords & Tabs

Dimmu Borgir Chords & Tabs

Version: 1 Type: Tab 0 ratings
1 star 2 stars 3 stars 4 stars 5 stars
comments

Da Den Kristine Satte Livet Til Tab

Tuning: Standard
Marking:
Let ring: l
Slide down: \
Slide up: /

Riff 1:
|--------------------------------------------------------------------|
|--------------------------------------------------------------------|
|--------------------------------------------------------------------|
|--------------10-101010-10-101010-10-101010-10-1010\7--9-999-9-999--|
|-7-777-7-777--8--8-8-8--8--8-8-8--8--8-8-8--8--8-8-\5--7-777-7-777--|
|-5-555-5-555--------------------------------------------------------|


Riff 2:
|-----------------------------------------------------|
|-----------------------------------------------------|
|-----------------------------------------------------|
|-----------------------------------------------------|
|-4-444-4-444--4-444-4-444--2-222-2-222--2-222-2-222--|
|-2-222-2-222--4-444-4-444--0-000-0-000--0-000-0-000--|


Riff 3:
|----------------------------------------------------|
|----------------------------------------------------|
|----------------------------------------------------|
|--------------------------9-9-9-9-9--5/7-7-7-7-7-7--|
|-7-7-7-7-7-7-7-7-7-7-7-7--7-7-7-7-7--3/5-5-5-5-5-5--|
|-5-5-5-5-5-5-5-5-5-5-5-5----------------------------|

[ Tab from: http://www.guitartabs.cc/tabs/d/dimmu_borgir/da_den_kristine_satte_livet_til_tab.html ]
Riff 4:
|--------------------------------------------------------------------------|
|--------------------------------------------------------------------------|
|--------------------------------------------------------------------------|
|--------------10-101010--10-101010--10-101010--10-101010-9-999--10-101010-|
|-7-777-7-777--8--8-8-8---8--8-8-8---8--8-8-8---8--8-8-8--7-777--8--8-8-8--|
|-5-555-5-555--------------------------------------------------------------|


Riff 5:
|-----------------------------------------------------|
|-----------------------------------------------------|
|-----------------------------------------------------|
|-6-666-6-666---------------6-666-6-666---------------|
|-4-444-4-444--7-777-7-777--4-444-4-444--7-777-6-666--|
|--------------5-555-5-555---------------5-555-4-444--|


Riff 6: (2x)
|---------------------------|
|---------------------------|
|---------------------------|
|---------------------------|
|-666666-77777777777777777--|
|-444444-55555555555555555--|


Riff 7: (2x)
|-------------------------------------------------|
|-------------------------------------------------|
|-------------------------------------------------|
|-------------------------------------------------|
|-6666666666-7777777777-66666666666-44444---------|
|-----------------------------------------7777-6--|
Comments