Dimmu Borgir - Broderskapets Ring Chords & Tabs

 

Broderskapets Ring Chords & Tabs

Dimmu Borgir Chords & Tabs

Version: 1 Type: Bass Tab 0 ratings
1 star 2 stars 3 stars 4 stars 5 stars
comments

Broderskapets Ring Bass Tab

G||--------------------------|--------------------------|
D||--------------------------|--------------------------|
A||--7--7--7--7--7--7--0--0--|--0--0--0--0--3--3--3--3--|
E||--------------------------|--------------------------|


                                                      
--------------------------|--------------------------|
--------------------------|--------------------------|
--3--3--5--5--5--5--5--5--|--7--7--7--7--7--7--0--0--|
--------------------------|--------------------------|


                                                      
--------------------------|--------------------------|
--------------------------|--------------------------|
--0--0--0--0--3--3--3--3--|--3--3--5--5--5--5--5--5--|
--------------------------|--------------------------|


                                                      
--------------------------|--------------------------|
--------------------------|--------------------------|
--7--7--7--7--7--7--0--0--|--0--0--0--0--3--3--3--3--|
--------------------------|--------------------------|


                                                      
--------------------------|--------------------------|
--------------------------|--------------------------|
--3--3--5--5--5--5--5--5--|--7--7--7--7--7--7--0--0--|
--------------------------|--------------------------|


                                                      
--------------------------|--------------------------|
--------------------------|--------------------------|
--0--0--0--0--3--3--3--3--|--3--3--5--5--5--5--5--5--|
--------------------------|--------------------------|


                                                      
--------------------------|--------------------------|
--------------------------|--------------------------|
--7--7--7--7--7--7--0--0--|--0--0--0--0--3--3--3--3--|
--------------------------|--------------------------|


                                                      
--------------------------|--------------------------|
--------------------------|--------------------------|
--3--3--5--5--5--5--5--5--|--7--7--7--7--7--7--0--0--|
--------------------------|--------------------------|


                                                                           
--------------------------|--------------------------|--------------------|
--------------------------|--------------------------|--------------------|
--0--0--0--0--3--3--3--3--|--3--3--5--5--5--5--5--5--|--0------------3----|
--------------------------|--------------------------|--------------------|


                                                                 
-----------------------|-------------------|--------------------|
-----------------------|-------------------|--------------------|
----2--3--5--7------7--|------7------------|--0------------3----|
-----------------------|-------------------|--------------------|


                                                                 
-----------------------|-------------------|--------------------|
-----------------------|-------------------|--------------------|
----2--3--5--7------7--|------7------------|--0------------3----|
-----------------------|-------------------|--------------------|


                                                                 
-----------------------|-------------------|--------------------|
-----------------------|-------------------|--------------------|
----2--3--5--7------7--|------7------------|--0------------3----|
-----------------------|-------------------|--------------------|


                                                                        
-----------------------|--------------------|--------------------------|
-----------------------|--------------------|--------------------------|
----2--3--5--7------7--|------7------7------|--7--7--7--7--7--7--0--0--|
-----------------------|--------------------|--------------------------|


                                                      
--------------------------|--------------------------|
--------------------------|--------------------------|
--0--0--0--0--3--3--3--3--|--3--3--5--5--5--5--5--5--|
--------------------------|--------------------------|


                                                      
--------------------------|--------------------------|
--------------------------|--------------------------|
--7--7--7--7--7--7--0--0--|--0--0--0--0--3--3--3--3--|
--------------------------|--------------------------|


                                                      
--------------------------|--------------------------|
--------------------------|--------------------------|
--3--3--5--5--5--5--5--5--|--7--7--7--7--7--7--0--0--|
--------------------------|--------------------------|


                                                      
--------------------------|--------------------------|
--------------------------|--------------------------|
--0--0--0--0--3--3--3--3--|--3--3--5--5--5--5--5--5--|
--------------------------|--------------------------|


                                                      
--------------------------|--------------------------|
--------------------------|--------------------------|
--7--7--7--7--7--7--0--0--|--0--0--0--0--3--3--3--3--|
--------------------------|--------------------------|


                                                      
--------------------------|--------------------------|
--------------------------|--------------------------|
--3--3--5--5--5--5--5--5--|--7--7--7--7--7--7--0--0--|
--------------------------|--------------------------|


                                                      
--------------------------|--------------------------|
--------------------------|--------------------------|
--0--0--0--0--3--3--3--3--|--3--3--------------------|
--------------------------|--------1--1--1--3--3--3--|


                                                      
--------------------------|--------------------------|
--------------------------|--------------------------|
--7--7--7--7--7--7--0--0--|--0--0--0--0--3--3--3--3--|
--------------------------|--------------------------|

[ Tab from: http://www.guitartabs.cc/tabs/d/dimmu_borgir/broderskapets_ring_btab.html ]
                                                      
--------------------------|--------------------------|
--------------------------|--------------------------|
--3--3--------------------|--7--7--7--7--7--7--0--0--|
--------1--1--1--3--3--3--|--------------------------|


                                                      
--------------------------|--------------------------|
--------------------------|--------------------------|
--0--0--0--0--3--3--3--3--|--3--3--------------------|
--------------------------|--------1--1--1--3--3--3--|


                                                      
--------------------------|--------------------------|
--------------------------|--------------------------|
--7--7--7--7--7--7--0--0--|--0--0--0--0--3--3--3--3--|
--------------------------|--------------------------|


                                                                        
--------------------------|--------------------|-----------------------|
--------------------------|--------------------|-----------------------|
--3--3--------------------|--0------------3----|----2--3--5--7------7--|
--------1--1--1--3--3--3--|--------------------|-----------------------|


                                                                 
-------------------|--------------------|-----------------------|
-------------------|--------------------|-----------------------|
------7------------|--0------------3----|----2--3--5--7------7--|
-------------------|--------------------|-----------------------|


                                                                 
-------------------|--------------------|-----------------------|
-------------------|--------------------|-----------------------|
------7------------|--0------------3----|----2--3--5--7------7--|
-------------------|--------------------|-----------------------|


                                                                 
-------------------|--------------------|-----------------------|
-------------------|--------------------|-----------------------|
------7------------|--0------------3----|----2--3--5--7------7--|
-------------------|--------------------|-----------------------|


                                                                           
--------------------|--------------------------|--------------------------|
--------------------|--------------------------|--------------------------|
------7------7------|--7--7--7--7--7--7--0--0--|--0--0--0--0--3--3--3--3--|
--------------------|--------------------------|--------------------------|


                                                      
--------------------------|--------------------------|
--------------------------|--------------------------|
--3--3--------------------|--7--7--7--7--7--7--0--0--|
--------1--1--1--3--3--3--|--------------------------|


                                                      
--------------------------|--------------------------|
--------------------------|--------------------------|
--0--0--0--0--3--3--3--3--|--3--3--------------------|
--------------------------|--------1--1--1--3--3--3--|


                                                      
--------------------------|--------------------------|
--------------------------|--------------------------|
--7--7--7--7--7--7--0--0--|--0--0--0--0--3--3--3--3--|
--------------------------|--------------------------|


                                                      
--------------------------|--------------------------|
--------------------------|--------------------------|
--3--3--------------------|--7--7--7--7--7--7--0--0--|
--------1--1--1--3--3--3--|--------------------------|


                                                      
--------------------------|--------------------------|
--------------------------|--------------------------|
--0--0--0--0--3--3--3--3--|--3--3--------------------|
--------------------------|--------1--1--1--3--3--3--|


                                                      
--------------------------|--------------------------|
--------------------------|--------------------------|
--7--7--7--7--7--7--0--0--|--0--0--0--0--3--3--3--3--|
--------------------------|--------------------------|


                                                      
--------------------------|--------------------------|
--------------------------|--------------------------|
--3--3--------------------|--7--7--7--7--7--7--0--0--|
--------1--1--1--3--3--3--|--------------------------|


                                                      
--------------------------|--------------------------|
--------------------------|--------------------------|
--0--0--0--0--3--3--3--3--|--3--3--------------------|
--------------------------|--------1--1--1--3--3--3--|


                                                      
--------------------------|--------------------------|
--------------------------|--------------------------|
--7--7--7--7--7--7--0--0--|--0--0--0--0--3--3--3--3--|
--------------------------|--------------------------|


                                                      
--------------------------|--------------------------|
--------------------------|--------------------------|
--3--3--------------------|--7--7--7--7--7--7--0--0--|
--------1--1--1--3--3--3--|--------------------------|


                                                      
--------------------------|--------------------------|
--------------------------|--------------------------|
--0--0--0--0--3--3--3--3--|--3--3--------------------|
--------------------------|--------1--1--1--3--3--3--|


                                                      
--------------------------|--------------------------|
--------------------------|--------------------------|
--7--7--7--7--7--7--0--0--|--0--0--0--0--3--3--3--3--|
--------------------------|--------------------------|


                                                      
--------------------------|--------------------------|
--------------------------|--------------------------|
--3--3--------------------|--7--7--7--7--7--7--0--0--|
--------1--1--1--3--3--3--|--------------------------|


                                                                          
--------------------------|--------------------------|-------------------|
--------------------------|--------------------------|-------------------|
--0--0--0--0--3--3--3--3--|--3--3--------------------|--7----------------|
--------------------------|--------1--1--1--3--3--3--|-------------------|


                    
------------------||
------------------||
------------------||
------------------||
Comments