Dimmu Borgir - Antikrist Chords & Tabs

 

Antikrist Chords & Tabs

Dimmu Borgir Chords & Tabs

Version: 2 Type: Tab 0 ratings
1 star 2 stars 3 stars 4 stars 5 stars
comments

Antikrist Tab

"Intro Riff"
[ Tab from: http://www.guitartabs.cc/tabs/d/dimmu_borgir/antikrist_tab_ver_2.html ]
e|--------------------------------------------------------------------|
B|--------------------------------------------------------------------|
G|--------------------------------------------------------------------|
D|--------------------------------------------------------------------|
A|------5---5-7-8-7-5-------------------------------------------------|
E|----5---5-----------8-6---------------------------------------------|

"Solo Riff"

e|--------------------------------------------------------------------|
B|--------------------------------------------------------------------|
G|--------------------------------------------------------------------|
D|------------5-7-8-5-------------------------------------------------|
A|--8-----8-7---------------------------------------------------------|
E|----5-6-------------------------------------------------------------|
Comments