Dimeola Al - Cruisin Chords & Tabs

 

Cruisin Chords & Tabs

Dimeola Al Chords & Tabs

Version: 1 Type: Tab 0 ratings
1 star 2 stars 3 stars 4 stars 5 stars
comments

Cruisin Tab

	Author of transcription: "ivan3", email: a38@net.hr
	Any sugestions, critics or questions are welcome!



        1st theme (x5)
	--------------------------------------------|-------------------------------------
	-----10-13-12----------------10-------------|-1,3,5.time - as writed-(with rests)-
	--11------------12---------9----11----------|--2,4.time - as triplets (no rests)--
	-------------------12-11--------------------|-------------------------------------
	--------------------------------------------|-------------------------------------
	--------------------------------------------|-------------------------------------

        2nd theme
0:19	---------------------------------------------------------------------------------
	---------------------------------------------------------------------------------
	--9b11r9-7-----7-9/11-9~~~--9-7--------7-7/9-7--------7~~~-----------------------
	-----------7-9------------------9-7-9-----------9-7-9----------------------------
	---------------------------------------------------------------------------------
	---------------------------------------------------------------------------------


0:25	---------------------------------------------------------------------------------
	---------------------------------------------------------------------------------
	--9b11=11r9-7-----7-9/11-9~~~-9-7-------9-7---------7~~~-------------------------
	--------------7-9-----------------9-7-9-------9-7-9------------------------------
	--(-fast-)-----------------------------------------------------------------------
	---------------------------------------------------------------------------------


0:31	---------------------------------------------------------------------------------
	---------------------------------------------------------------------------------
	---9b11r9-7-----7-9/11-9~~~~-7b9=9r7-------9-7---------7~~~----------------------
	-7----------7-9----------------------9-7-9-------9-7-9---------------------------
	---------------------------------------------------------------------------------
	---------------------------------------------------------------------------------

	
0:38	---------------------------------------------------------------------------------
	---------------------------------------------------------------------------------
	---9b11r9-7-----7-9/11-9~~~~-7b9=9r7-------9-7---------7~~~----------------------
	-7----------7-9----------------------9-7-9-------9-7-9---------------------------
	---------------------------------------------------------------------------------
	---------------------------------------------------------------------------------

        3.theme
0:43	---------------------------------------------------------------------------------
	----------------------------13-12------------------------------------------------
	----------7~~---------11-14---------11-14/16-14~~~-------------------------------
	--9~~-7-9-------12-14------------------------------------------------------------
	---------------------------------------------------------------------------------
	---------------------------------------------------------------------------------

	
0:50	---------------------------------------------------------------------------------
	--------------12/13-12-----------------------------------------------------------
	--------11-14-(fast)---11-14/16--14~~~---------------11p9-7-9-7-7~~--------------
	--12-14--------------------------------------------------------------------------
	------------------------------------------------------(keyboard)-----------------
	---------------------------------------------------------------------------------


0:56	--------------------12---12b14-10------------------------------------------------
	--------------12-15---------------12~~~~~~-12b13r12p10/7-5h7~~~~-----------------
	--------11-14--------------------------------------------------------------------
	--12-14--------------------------------------------------------------------------
	---------------------------------------------------------------------------------
	---------------------------------------------------------------------------------


1:02	---------------------------------------------------------------------------------
	--------------12-12b13=13r12-----------------------------------------------------
	--------11-14----(very fast)-11-14/16--14~~~---------------11p9-7-9-7-7~~--------
	--12-14--------------------------------------------------------------------------
	------------------------------------------------------------(keyboard)-----------
	---------------------------------------------------------------------------------

	
1:08	---------------------------------------------------------------------------------
	--------------12/13-12-----------------------------------------------------------
	--------11-14--(f)-----11-14/16--14~~~---------------11p9p7--9---7~~-------------
	--12-14--------------------------------------------------------9-----------------
	-------------------------------------------------------(keyboard)----------------
	---------------------------------------------------------------------------------

[ Tab from: http://www.guitartabs.cc/tabs/d/dimeola_al/cruisin_tab.html ]
1:14	--------------------12---12b14-10------------------------------------------------
	--------------12-15---------------12~~~~~~--14--15-14--12------------------------
	--------11-14---------------------------------------------14-11---9~~~~~~--------
	--12-14--------------------------------------------------------------------------
	---------------------------------------------------------------------------------
	---------------------------------------------------------------------------------
	
	
1:21	repeat 2.theme
	
 
1:46 	--12b14r12-10-------10-12b14-12~~~~~-10b12r10----------10-10b12-10~~~~~----------
	--------------10-12----------------------------12-10-12--------------------------
	---------------------------------------------------------------------------------
	---------------------------------------------------------------------------------
	---------------------------------------------------------------------------------
	---------------------------------------------------------------------------------

	------------------------------------------------------------------------17b19~~~-
	-----------------------------(2.guitar on 1:50)---17--17b19-17-15----------------
	------------------------------------------------------------------14-16----------
	---------------------------------------------------------------------------------
	---------------------------------------------------------------------------------
	---------------------------------------------------------------------------------


1:52    repeat everything


1:57	-------15b17r15-14---------------------------------------------------------------
	--12---------------15------------------------------------------------------------
	-----14--------------------------------------------------------------------------
	---------------------------------------------------------------------------------
	---------------------------------------------------------------------------------
	---------------------------------------------------------------------------------


1:58    repeat 4th theme


2:37    repeat 1st theme (only 3x)


2:47    ---------------------------------------------------------------------------------
	---------------------------------------------------------------------------------
	--9b11r9-7-----7-9b11=11r9~~~--9-7-------7-7/9-7---------7~~~--------------------
	-----------7-9---------------------9-7-9-----------9-7-9-------------------------
	---------------------------------------------------------------------------------
	---------------------------------------------------------------------------------


2:53	-------------------------------------------------------------------------10-
	----------------------------------------------------------------------12----
	--9b11=r9-7-----7-9b11=11r9~~~-9-7-------9-7---------7~~~-------11-14-------
	------------7-9---(--fast-)--------9-7-9-------9-7-9------12-14-------------
	----------------------------------------------------------------------------
	----------------------------------------------------------------------------


2:59	--12b14r12-10-------10-12b14-12~~~~~-10b12r10----------10-10b12-10~~~~~----------
	--------------10-12---------------------------12-10-12---------------------------
	---------------------------------------------------------------------------------
	---------------------------------------------------------------------------------
	---------------------------------------------------------------------------------
	---------------------------------------------------------------------------------

	-----------------------------------------------------------------------17b19~~~--
	------------------------------------(2.guitar)---17--17b19-17-15-----------------
	-----------------------------------------------------------------14-16-----------
	---------------------------------------------------------------------------------
	---------------------------------------------------------------------------------
	---------------------------------------------------------------------------------


3:05	--12b14r12-10-------10-12b14-12~~~~~-10b12r10----------10-10b12-10~~~~~----------
	--------------10-12----------------------------12-10-12--------------------------
	---------------------------------------------------------------------------------
	---------------------------------------------------------------------------------
	---------------------------------------------------------------------------------
	---------------------------------------------------------------------------------

	---------------------------------------------------------------------------------
	---------------------------------------------------------------------------------
	-------------------------------------------(2.guitar )-------9b11-9b11-9b11-9b11-
	---------------------------------------------------------------------------------
	---------------------------------------------------------------------------------
	---------------------------------------------------------------------------------



3:18	---------------------------------------------------------------------------------
	----------------------------------------14-15-15b17---15-14p15h14p15-14----------
	--9b11---9b11r9-7-9---7-6--------14-/16---------------------------------14-------
	--------------------------7~~~~--------------------------------------------17----
	---------------------------------------------------------------------------------
	---------------------------------------------------------------------------------


3:29	---------------------------------------------------------------------------------
	---17-b19----20p19----------------19-------21p19....... -------------------------
	-------------------19----------19----18~~----------------------------------------
	----------------------21-19-21---------------------------------------------------
	---------------------------------------------------------------------------------
	---------------------------------------------------------------------------------


	a38@net.hr
Comments