Dimeola Al - African Night Chords & Tabs

 

African Night Chords & Tabs

Dimeola Al Chords & Tabs

Version: 1 Type: Tab 0 ratings
1 star 2 stars 3 stars 4 stars 5 stars
comments

African Night Tab

Al DiMeola - African Night
Tabbed by Antti Nykänen (antti.nykanen@jippii.fi)

This is only for the main guitar structure.
                                                               
E||------------------------------|----------------------------|
B||------------------------------|--------14h15h14------------|
G||--11/-14--14--14------11/-14/-|--16~---------------14~-----|
D||------------------------------|----------------------------|
A||------------------------------|----------------------------|
E||------------------------------|----------------------------|


                                                            
------------------------------|----------------------------|
------------------------------|--------14h15h14------------|
--11/14-14--14--------11/-14/-|--16~---------------14~-----|
------------------------------|----------------------------|
------------------------------|----------------------------|
------------------------------|----------------------------|


                                                             
----------------------------|-------------------------------|
----------------------------|-------------------------------|
------12--11----------------|--9/11---11--14/12----12/11----|
--12----------------12--14--|-------------------------------|
----------------------------|-------------------------------|
----------------------------|-------------------------------|


                                                                           
------------------------|------------------|------------------------------|
------------------------|------------------|------------------------------|
------------------------|------------------|--11/14-14--14--------11/-14/-|
--14------12------------|------------------|------------------------------|
------------------12----|------------------|------------------------------|
------------------------|------------------|------------------------------|


                                                            
----------------------------|------------------------------|
--------14h15h14------------|------------------------------|
--16~---------------14~-----|--11/14-14--14--------11/-14/-|
----------------------------|------------------------------|
----------------------------|------------------------------|
----------------------------|------------------------------|

[ Tab from: http://www.guitartabs.cc/tabs/d/dimeola_al/african_night_tab.html ]
                                                          
----------------------------|----------------------------|
--------14h15h14------------|----------------------------|
--16----------------14------|------12--11----------------|
----------------------------|--14----------------12--14--|
----------------------------|----------------------------|
----------------------------|----------------------------|


                                                                            
-------------------------------|------------------------|------------------|
-------------------------------|------------------------|------------------|
--9/11---11--14/12----12/11----|------------------------|------------------|
-------------------------------|--14------12------------|------------------|
-------------------------------|------------------12----|------------------|
-------------------------------|------------------------|------------------|


                                                            
------------------------------|----------------------------|
------------------------------|--------14h15h14------------|
--11/14-14--14--------11/-14/-|--16~---------------14~-----|
------------------------------|----------------------------|
------------------------------|----------------------------|
------------------------------|----------------------------|


                                                            
------------------------------|----------------------------|
------------------------------|--------14h15h14------------|
--11/14-14--14--------11/-14/-|--16~---------------14~-----|
------------------------------|----------------------------|
------------------------------|----------------------------|
------------------------------|----------------------------|


                                                            
---------------------------|-------------------------------|
-----12--------------------|-------------------------------|
--9------11----------------|--9/11---11--14/12----12/11----|
-------------------12--14--|-------------------------------|
---------------------------|-------------------------------|
---------------------------|-------------------------------|


                                             
------------------------|------------------||
------------------------|------------------||
------------------------|------------------||
--14------12------------|------------------||
------------------14----|------------------||
------------------------|------------------||


Comments