Dimension Zero - Dead Silent Shriek Chords & Tabs

 

Dead Silent Shriek Chords & Tabs

Dimension Zero Chords & Tabs

Version: 1 Type: Tab 0 ratings
1 star 2 stars 3 stars 4 stars 5 stars
comments

Dead Silent Shriek Tab

   
Author/Artist: DIMENSION ZERO
Title: Dead Silent Shriek
Album: PENETRATIONS FROM THE LOST WORLD
Transcribed by: Hakuja
URL: http://funeralelegy.net/fw/
Email: hakuja@jiten.ne.jp

Ver. 0.8 (00/04/12)

Explanation of a sign
        h : hammer on             p : pull on
        g : grissando             s : slide
        c,hc,1hc : bend           ^ : tie

Tuning : 1 and half down

*** time - 0:00
Part_A
  Repeat it 4 times.
#||------------------------|-----------------------|-----------------------|----------------------|
#||------------------------|-----------------------|-----------------------|----------------------|
#||o-----------------------|-----------------------|-----------------------|----------------------|
#||o-----------------------|-----------------9-9---|-----------------------|-----------------7-7--|
#||--------1010------1010--|-----------------------|-------1010------1010--|----------------------|
#||---0-0-------0-0--------|--0-0--7-7--8-8--------|--0-0-------0-0--------|--0-0--3-3--5-5-------|
 ||   1    2    3    4     |  1    2    3    4     |  1    2    3    4     |  1    2    3    4    |
 ||                        |                       |                       |                      |
 ||                        |                       |                       |                      |
#||------------------------|-----------------------|-----------------------|----------------------|
#||------------------------|-----------------------|-----------------------|----------------------|
#||o-----------------------|-----------------------|-----------------------|----------------------|
#||o-----------------------|-----------------------|-----------------------|----------------------|
#||--------7-7-------7-7---|-----------------1010--|-------7-7-------7-7---|-----------------7-7--|
#||---0-0-------0-0--------|--0-0--7-7--8-8--------|--0-0-------0-0--------|--0-0--3-3--5-5-------|
      1    2    3    4        1    2    3    4        1         2             3         4


|-----------------------|-----------------------|----------------------|-----------------------||#
|-----------------------|-----------------------|----------------------|-----------------------||#
|-----------------------|-----------------------|----------------------|----------------------o||#
|-----------------------|-----------------9-9---|----------------------|----------------------o||#
|-------1010------1010--|-----------------------|----10-9----9-7----7--|--5----5-3-------3-2---||#
|--0-0-------0-0--------|--0-0--7-7--8-8--------|--0------0-------0----|----0-------0-0--------||#
|  1    2    3    4     |  1    2    3    4     |  1    2    3    4    |  1    2    3    4     ||
|                       |                       |                      |                       ||
|                       |                       |                      |                       ||
|-----------------------|-----------------------|----------------------|-----------------------||#
|-----------------------|-----------------------|----------------------|-----------------------||#
|-----------------------|-----------------------|----------------------|----------------------o||#
|-----------------------|-----------------------|----------------------|----------------------o||#
|-------7-7-------7-7---|-----------------1010--|----10-9----9-7----7--|--5----5-3-------3-2---||#
|--0-0-------0-0--------|--0-0--7-7--8-8--------|--0------0-------0----|----0-------0-0--------||#
   1    2    3    4        1    2    3    4        1    2    3    4       1    2    3    4  (End of Part_A)


*** time - 0:32
Part_B
#|--------------------12----------------|----------------------------------------|
#|--15c-------------------15---12-------|------15--------------------------------|
#|---------------------------------14c^^^^^14c------14c--d-12------12------------|
#|--------------------------------------|----------------------14-------14--12---|
#|--------------------------------------|----------------------------------------|
#|--------------------------------------|----------------------------------------|
 |  1        2        3        4        |  1        2          3        4        |
 |                                      |                                        |
 |                                      |                                        |
#|--------------------------------------|----------------------------------------|
#|--------------------------------------|----------------------------------------|
#|--------------------------------------|----------------------------------------|
#|--------------------------------------|----------------------------------------|
#|--2-----------------------------------|--5-------------------------------------|
#|--0-----------------------------------|--3-------------------------------------|
    1        2        3        4           1        2          3        4


|--------------------------------------|--------------------------------------|
|--------------------------------------|--------------------------------------|
|--------------------------------------|-----------------------------12-------|
|--14--12------------------------------|-----------12------s14-----------14---|
|-----------14--13---12--10------------|-s14-----------14---------------------|
|-----------------------------12--10---|--------------------------------------|
|  1        2        3        4        |  1        2        3        4        |
|                                      |                                      |
|                                      |                                      |
|--------------------------------------|--------------------------------------|
|--------------------------------------|--------------------------------------|
|--------------------------------------|--------------------------------------|
|--7-----------------------------------|--5-----------------7-----------------|
|--5-----------------------------------|--3-----------------5-----------------|
|--------------------------------------|--------------------------------------|
   1        2        3        4           1        2        3        4


|---------------15------p10--h12-p10---|--15-p12--h14-p10--h12-p10---17-h15---|
|--------------------------------------|--------------------------------------|
|--14c---------------------------------|--------------------------------------|
|--------------------------------------|--------------------------------------|
|--------------------------------------|--------------------------------------|
|--------------------------------------|--------------------------------------|
|  1        2        3        4        |  1        2        3        4        |
|                                      |                                      |
|                                      |                                      |
|--------------------------------------|--------------------------------------|
|--------------------------------------|--------------------------------------|
|--------------------------------------|--------------------------------------|
|--------------------------------------|--------------------------------------|
|--2-----------------------------------|--5-----------------------------------|
|--0-----------------------------------|--3-----------------------------------|
   1        2        3        4           1        2        3        4


|--14-h15--h17-------------------------|--------------------------------------|
|---------------15s-----------17--13---|--13--15p1312--13---12----------------|
|--------------------------------------|------------------------14---12--11---|
|--------------------------------------|--------------------------------------|
|--------------------------------------|--------------------------------------|
|--------------------------------------|--------------------------------------|
|  1        2        3        4        |  1        2        3        4        |
|                                      |                                      |
|                                      |                                      |
|--------------------------------------|--------------------------------------|
|--------------------------------------|--------------------------------------|
|--------------------------------------|--------------------------------------|
|--7-----------------------------------|--2-----------------4-----------------|
|--5-----------------------------------|--0-----------------2-----------------|
|--------------------------------------|--------------------------------------|
   1        2        3        4           1        2        3        4


|---------------------------------17^^^^^^c^^^d----15--17----------------22^^^|
|------------------------17------------|-----------------------------15-------|
|--9-----------------------------------|--------------------------------------|
|--------------------------------------|--------------------------------------|
|--------------------------------------|--------------------------------------|
|--------------------------------------|--------------------------------------|
|  1        2        3        4        |  1        2        3        4        |
|                                      |                                      |
|                                      |                                      |
|--------------------------------------|--------------------------------------|
|--------------------------------------|--------------------------------------|
|--------------------------------------|--------------------------------------|
|--------------------------------------|--------------------------------------|
|--2-----------------------------------|--5-----------------------------------|
|--0-----------------------------------|--3-----------------------------------|
   1        2        3        4           1        2        3        4


|^^22----------------------------------|--24-------22--22---20--19---17-------|
|------20---19----------------20--19---|------20------------------------------|
|--------------------21--19------------|--------------------------------------|
|--------------------------------------|--------------------------------------|
|--------------------------------------|--------------------------------------|
|--------------------------------------|--------------------------------------|
|  1        2        3        4        |  1        2        3        4        |
|                                      |                                      |
|                                      |                                      |
|--------------------------------------|--------------------------------------|
|--------------------------------------|--------------------------------------|
|--------------------------------------|--------------------------------------|
|--7-----------------------------------|--5-----------------7-----------------|
|--5-----------------------------------|--3-----------------5-----------------|
|--------------------------------------|--------------------------------------|
   1        2        3        4           1        2        3        4


|--------------------------------------|--------------------------------------|
|--20c----------20----------------20^^^^^^20--19---15--19---17--15---20--19---|
|--------------------------------------|--------------------------------------|
|--------------------------------------|--------------------------------------|
|--------------------------------------|--------------------------------------|
|--------------------------------------|--------------------------------------|
|  1        2        3        4        |  1        2        3        4        |
|                                      |                                      |
|                                      |                                      |
|--------------------------------------|--------------------------------------|
|--------------------------------------|--------------------------------------|
|--------------------------------------|--------------------------------------|
|--------------------------------------|--------------------------------------|
|--2-----------------------------------|--5-----------------------------------|
|--0-----------------------------------|--3-----------------------------------|
   1        2        3        4           1        2        3        4


|--------------------------------------|---------------------------------------|-----------|#
|--15c----------15----------------13^^^^^^13--15p13-12--13---12----------------|-----------|#
|--------------------------------------|-------------------------14---12--11---|-----------|#
|--------------------------------------|---------------------------------------|--14-------|#
|--------------------------------------|---------------------------------------|-----------|#
|--------------------------------------|---------------------------------------|-----------|#
|  1        2        3        4        |  1         2        3        4        |  1
|                                      |                                       |
|                                      |                                       |
|--------------------------------------|---------------------------------------|#
|--------------------------------------|---------------------------------------|#
|--------------------------------------|---------------------------------------|#
|--7-----------------------------------|--2------------------4-----------------|#
|--5-----------------------------------|--0------------------2-----------------|#
|--------------------------------------|---------------------------------------|#
   1        2        3        4           1         2        3        4    (End of Part_B)




*** time - 0:49
Play Part_A
  Repeat it 2 times.




*** time - 1:05
Part_C
// Rhythm guitar play the same as Part_B.
#|--------------------------------------|--------------------------------------|
#|--------------------------------------|--------------------------------------|
#|--11hc-----------------------11^^dp9--|--7-----------------------------------|
#|--------------------------------------|--------------------------------------|
#|--------------------------------------|--------------------------------------|
#|--------------------------------------|--------------------------------------|
    1        2        3        4           1        2        3        4

[ Tab from: http://www.guitartabs.cc/tabs/d/dimension_zero/dead_silent_shriek_tab.html ]
|--------------------------------------|-----------------------------12h14h15--|
|--15----------------------------------|--------------------12h13h15-----------|
|------14---12--11^^^hc^^d-------------|-----------11h12h14--------------------|
|-----------------------------14--12---|--12-h14-------------------------------|
|--------------------------------------|---------------------------------------|
|--------------------------------------|---------------------------------------|
   1        2        3        4           1        2        3        4


|--14hc-----------------------14^^dp12--|--------------------------------------|
|---------------------------------------|--15----------------------------------|
|---------------------------------------|--------------------------------------|
|---------------------------------------|--------------------------------------|
|---------------------------------------|--------------------------------------|
|---------------------------------------|--------------------------------------|
   1        2        3        4            1        2        3        4


|-----------22-------------------------|--------------------------------------|
|--20c----------20c--------------------|------15------------------------------|
|---------------------------------14c^^^^^14c------14c^dp12-------------------|
|--------------------------------------|--------------------14--13---12--13---|
|--------------------------------------|--------------------------------------|
|--------------------------------------|--------------------------------------|
   1        2        3        4           1        2        3        4


|---------------------------------17---|--15--14------------------------------|
|--------------------------------------|-----------15-----------15------------|
|--------------------------------------|---------------14---12-------14--12---|
|--14----------------------------------|--------------------------------------|
|--------------------------------------|--------------------------------------|
|--------------------------------------|--------------------------------------|
   1        2        3        4           1        2        3        4


|--------------------------------------|--------------------------------------|
|--------------------------------------|--------------------------------------|
|------14---12--11-------11------------|--------------------------------------|
|--12----------------12-------12-------|--------------------------------------|
|---------------------------------12---|--10--9----10--12---10--9-------------|
|--------------------------------------|-----------------------------12--10---|
   1        2        3        4           1        2        3        4


|--------------------------------------|--------------------------------------|
|--------------------------------------|--------------------------------------|
|--------------------------------------|---------------------------------11---|
|--------------------------------------|---------------9----10--12---14-------|
|--------------------------------------|--9---10---12-------------------------|
|--12--------------------8----10--12---|--------------------------------------|
   1        2        3        4           1        2        3        4


|------------------------12---14---15--|--12----------------------------------|---------|#
|-----------12--13---15----------------|--------------------15----------------|--15c----|#
|--12--14------------------------------|--------------------------------------|---------|#
|--------------------------------------|--------------------------------------|---------|#
|--------------------------------------|--------------------------------------|---------|#
|--------------------------------------|--------------------------------------|---------|#
   1        2        3        4           1        2        3        4    (End of Part_C)




*** time - 1:21
Play Part_A
  Repeat it 2 times.




*** time - 1:37
Part_D
#|--------------------------------------|#
#|--------------------------------------|#
#|--------------------------------------|#
#|--------------------------------------|#
#|--2---2----2---2----------------------|#
#|--0---0----0---0----0-0-0-0--0-0-0-0--|#
    1        2        3        4     (End of Part_D)




*** time - 1:39
Part_E
  Repeat it 4 times.
#||-----------------------|-----------------------||#
#||-----------------------|-----------------------||#
#||o----------------------|----------------------o||#
#||o----------------------|----------------------o||#
#||---5------3-------7h8--|-----------------------||#
#||-----0--0----0-0-------|--0-0--0-0--0-0--0-0---||#
      1    2    3    4       1    2    3    4    (End of Part_E)




*** time - 1:47
Part_F
  Repeat it 2 times.
#||-----------------------|----------------------|----------------------|----------------------|
#||-----------------------|----------------------|----------------------|----------------------|
#||o----------------------|----------------------|----------------------|----------------------|
#||o--10s9------7------6^^^^^6-------------------|--5---------4---------|----------------------|
#||---8-s7------5------4^^^^^4-------------------|--3---------2------5^^^^^5-------------------|
#||-----------------------|----------------------|-------------------3^^^^^3-------------------|
      1    2    3    4       1    2    3    4       1    2    3    4       1    2    3    4


|----------------------|----------------------|----------------------|-----------------------||#
|----------------------|----------------------|----------------------|-----------------------||#
|----------------------|----------------------|----------------------|----------------------o||#
|--10s9------7------6^^^^^6-------------------|--5---------4---------|----------------------o||#
|--8-s7------5------4^^^^^4-------------------|--3---------2------5^^^^^5--------------------||#
|----------------------|----------------------|-------------------3^^^^^3--------------------||#
   1    2    3    4       1    2    3    4    |  1    2    3    4    |  1    2    3    4     ||
                                              |                      |                       ||
                                              |                      |                       ||
                                              |----------------------|-----------------------||#
                                              |----------------------|-----------------------||#
                                              |----------------------|----------------------o||#
                                              |--5---------4---------|----------------------o||#
                                              |--3---------2------2^^^^^2--------------------||#
                                              |-------------------0^^^^^0--------------------||#
                                                 1    2    3    4       1    2    3    4  (End of Part_F)




*** time - 2:03
Part_E'
Play Part_E
  Repeat it 4 times.
  x1 only
|----------------------|----------------------|
|----------------------|----------------------|
|----------------------|----------------------|
|----------------------|----------------------|
|--8p5----3-------7h8--|----------------------|
|-------0----0-0-------|--0-0--0-0--0-0--0-0--|
   1    2    3    4       1    2    3    4
// The rest is the same as Part_E.
(End of Part_E')




*** time - 2:11
Play Part_F
  Repeat it 2 times.




*** time - 2:27
Part_F'
#||-----------------------|----------------------|----------------------|----------------------|
#||-----------------------|----------------------|----------------------|----------------------|
#||o----------------------|----------------------|----------------------|----------------------|
#||o--5---------4---------|----------------------|----------------------|----------------------|
#||--------------------7^^^^^7-------------------|--7---------5------3^^^^^3-------------------|
#||-----------------------|----------------------|----------------------|----------------------|
 ||   1    2    3    4    |  1    2    3    4    |  1    2    3    4    |  1    2    3    4    |
 ||                       |                      |                      |                      |
 ||                       |                      |                      |                      |
#||-----------------------|----------------------|----------------------|----------------------|
#||-----------------------|----------------------|----------------------|----------------------|
#||o----------------------|----------------------|----------------------|----------------------|
#||o--9---------7------5^^^^^5-------------------|--5---------4---------|----------------------|
#||-----------------------|----------------------|-------------------7^^^^^7-------------------|
#||-----------------------|----------------------|----------------------|----------------------|
 ||   1    2    3    4    |  1    2    3    4    |  1    2    3    4    |  1    2    3    4    |
 ||                       |                      |                      |                      |
 ||                       |                      |                      |                      |
#||-----------------------|----------------------|----------------------|----------------------|
#||-----------------------|----------------------|----------------------|----------------------|
#||o----------------------|----------------------|----------------------|----------------------|
#||o--9---------7------5^^^^^5-------------------|--5---------4------2^^^^^2-------------------|
#||---7---------5------3^^^^^3-------------------|--3---------2------0^^^^^0-------------------|
#||-----------------------|----------------------|----------------------|----------------------|
      1    2    3    4       1    2    3    4       1    2    3    4       1    2    3    4


 _______________
|1.
|----------------------|----------------------|----------------------|-----------------------||
|----------------------|----------------------|----------------------|-----------------------||
|----------------------|----------------------|----------------------|----------------------o||
|----------------------|----------------------|----------------------|----------------------o||
|--7---------5------3^^^^^3-------------------|--7---------5------7^^^^^7--------------------||
|----------------------|----------------------|----------------------|-----------------------||
|  1    2    3    4       1    2    3    4       1    2    3    4       1    2    3    4     ||
|                                                                                            ||
|                                                                                            ||
|----------------------|----------------------|----------------------|-----------------------||
|----------------------|----------------------|----------------------|-----------------------||
|----------------------|----------------------|----------------------|----------------------o||
|--5---------4---------|----------------------|--5---------4------5^^^^^5-------------------o||
|-------------------7^^^^^7-------------------|----------------------|-----------------------||
|----------------------|----------------------|----------------------|-----------------------||
|  1    2    3    4    |  1    2    3    4    |  1    2    3    4    |  1    2    3    4     ||
|                      |                      |                      |                       ||
|                      |                      |                      |                       ||
|----------------------|----------------------|----------------------|-----------------------||
|----------------------|----------------------|----------------------|-----------------------||
|----------------------|----------------------|----------------------|----------------------o||
|--5---------4------2^^^^^2-------------------|--5---------4---------|----------------------o||
|--3---------2------0^^^^^0-------------------|--3---------2------2^^^^^2--------------------||
|----------------------|----------------------|-------------------0^^^^^0--------------------||
   1    2    3    4       1    2    3    4       1    2    3    4       1    2    3    4


 _______________
|2.
|----------------------|----------------------|----------------------|----------------------|#
|----------------------|----------------------|----------------------|----------------------|#
|----------------------|----------------------|----------------------|----------------------|#
|----------------------|----------------------|----------------------|----------------------|#
|--7---------5------3^^^^^3-------------------|--7---------5---------|--7-------------------|#
|----------------------|----------------------|----------------------|----------------------|#
|  1    2    3    4       1    2    3    4       1    2    3    4       1    2    3    4    |
|                                                                                           |
|                                                                                           |
|----------------------|----------------------|----------------------|----------------------|#
|----------------------|----------------------|----------------------|----------------------|#
|----------------------|----------------------|----------------------|----------------------|#
|--5---------4---------|----------------------|--5---------4---------|----------------------|#
|-------------------7^^^^^7-------------------|----------------------|----------------------|#
|----------------------|----------------------|----------------------|----------------------|#
|  1    2    3    4    |  1    2    3    4    |  1    2    3    4    |  1    2    3    4    |
|                      |                      |                      |                      |
|                      |                      |                      |                      |
|----------------------|----------------------|----------------------|----------------------|#
|----------------------|----------------------|----------------------|----------------------|#
|----------------------|----------------------|----------------------|----------------------|#
|--5---------4------2^^^^^2-------------------|--5---------4---------|-last Only------------|#
|--3---------2------0^^^^^0-------------------|--3---------2---------|-(2)------------------|#
|----------------------|----------------------|----------------------|-(0)------------------|#
   1    2    3    4       1    2    3    4       1    2    3    4       1    2    3    4   (End of Part_F')




*** time - 2:44
Play Part_A
 Repeat 2 time.
 + Repeats once again 7,8th bar of Part_A.

*** time - 3:03
Play Part_F'
 x1 is play 3 times, x4 is play once, and finally it is.




=== END OF TAB ===
Comments